ISO-10303-21;
HEADER;
FILE_DESCRIPTION (( 'STEP AP203' ),
    '1' );
FILE_NAME ('Web Model 12451_12451.step',
    '2019-11-01T14:39:14',
    ( '' ),
    ( '' ),
    'SwSTEP 2.0',
    'SolidWorks 2018',
    '' );
FILE_SCHEMA (( 'CONFIG_CONTROL_DESIGN' ));
ENDSEC;

DATA;
#1 = DIRECTION ( 'NONE',  ( 1.000000000000000000, 0.0000000000000000000, 0.0000000000000000000 ) ) ;
#2 = CARTESIAN_POINT ( 'NONE',  ( 0.8000000000000000444, 0.0000000000000000000, 0.0000000000000000000 ) ) ;
#3 = EDGE_CURVE ( 'NONE', #128, #126, #161, .T. ) ;
#4 = EDGE_CURVE ( 'NONE', #126, #128, #70, .T. ) ;
#5 = CARTESIAN_POINT ( 'NONE',  ( -0.8000000000000000444, 7.654042494670957606E-16, -6.250000000000000000 ) ) ;
#6 = CALENDAR_DATE ( 2019, 1, 11 ) ;
#7 =( NAMED_UNIT ( * ) SI_UNIT ( $, .STERADIAN. ) SOLID_ANGLE_UNIT ( ) );
#8 = SECURITY_CLASSIFICATION_LEVEL ( 'unclassified' ) ;
#9 = APPROVAL_PERSON_ORGANIZATION ( #15, #141, #154 ) ;
#10 = EDGE_LOOP ( 'NONE', ( #54, #175, #159, #139 ) ) ;
#11 = CC_DESIGN_PERSON_AND_ORGANIZATION_ASSIGNMENT ( #99, #48, ( #108 ) ) ;
#12 = CALENDAR_DATE ( 2019, 1, 11 ) ;
#13 = EDGE_CURVE ( 'NONE', #75, #89, #115, .T. ) ;
#14 = AXIS2_PLACEMENT_3D ( 'NONE', #91, #79, #45 ) ;
#15 = PERSON_AND_ORGANIZATION ( #110, #74 ) ;
#16 = CARTESIAN_POINT ( 'NONE',  ( 0.8000000000000000444, 0.0000000000000000000, 6.250000000000000000 ) ) ;
#17 = ORIENTED_EDGE ( 'NONE', *, *, #23, .T. ) ;
#18 = DIRECTION ( 'NONE',  ( 0.0000000000000000000, 0.0000000000000000000, 1.000000000000000000 ) ) ;
#19 = CALENDAR_DATE ( 2019, 1, 11 ) ;
#20 = ADVANCED_BREP_SHAPE_REPRESENTATION ( 'Web Model 12451_12451', ( #113, #160 ), #60 ) ;
#21 = PRODUCT_DEFINITION ( 'UNKNOWN', '', #53, #55 ) ;
#22 = PERSON_AND_ORGANIZATION ( #110, #74 ) ;
#23 = EDGE_CURVE ( 'NONE', #89, #75, #41, .T. ) ;
#24 = ADVANCED_FACE ( 'NONE', ( #77 ), #92, .T. ) ;
#25 = EDGE_LOOP ( 'NONE', ( #104, #138 ) ) ;
#26 = DATE_AND_TIME ( #148, #73 ) ;
#27 = APPROVAL_DATE_TIME ( #93, #141 ) ;
#28 = CYLINDRICAL_SURFACE ( 'NONE', #111, 6.250000000000000000 ) ;
#29 = PERSON_AND_ORGANIZATION ( #110, #74 ) ;
#30 = DIRECTION ( 'NONE',  ( 0.0000000000000000000, 0.0000000000000000000, -1.000000000000000000 ) ) ;
#31 = DIRECTION ( 'NONE',  ( 1.000000000000000000, 0.0000000000000000000, 0.0000000000000000000 ) ) ;
#32 = DIRECTION ( 'NONE',  ( 0.0000000000000000000, 0.0000000000000000000, 1.000000000000000000 ) ) ;
#33 = LINE ( 'NONE', #105, #35 ) ;
#34 = CARTESIAN_POINT ( 'NONE',  ( 0.0000000000000000000, 0.0000000000000000000, 0.0000000000000000000 ) ) ;
#35 = VECTOR ( 'NONE', #97, 1000.000000000000000 ) ;
#36 = EDGE_LOOP ( 'NONE', ( #164, #62, #58, #102 ) ) ;
#37 = COORDINATED_UNIVERSAL_TIME_OFFSET ( 5, 0, .BEHIND. ) ;
#38 = VECTOR ( 'NONE', #168, 1000.000000000000000 ) ;
#39 = COORDINATED_UNIVERSAL_TIME_OFFSET ( 5, 0, .BEHIND. ) ;
#40 = PERSON_AND_ORGANIZATION ( #110, #74 ) ;
#41 = CIRCLE ( 'NONE', #169, 6.250000000000000000 ) ;
#42 = CARTESIAN_POINT ( 'NONE',  ( 0.8000000000000000444, 0.0000000000000000000, 0.0000000000000000000 ) ) ;
#43 = COORDINATED_UNIVERSAL_TIME_OFFSET ( 5, 0, .BEHIND. ) ;
#44 = CC_DESIGN_DATE_AND_TIME_ASSIGNMENT ( #71, #136, ( #82 ) ) ;
#45 = DIRECTION ( 'NONE',  ( 0.0000000000000000000, 0.0000000000000000000, -1.000000000000000000 ) ) ;
#46 = DIRECTION ( 'NONE',  ( 0.0000000000000000000, 0.0000000000000000000, -1.000000000000000000 ) ) ;
#47 = FACE_OUTER_BOUND ( 'NONE', #36, .T. ) ;
#48 = PERSON_AND_ORGANIZATION_ROLE ( 'design_owner' ) ;
#49 = PRODUCT_DEFINITION_SHAPE ( 'NONE', 'NONE',  #21 ) ;
#50 = APPLICATION_CONTEXT ( 'configuration controlled 3d designs of mechanical parts and assemblies' ) ;
#51 = APPLICATION_CONTEXT ( 'configuration controlled 3d designs of mechanical parts and assemblies' ) ;
#52 = PERSON_AND_ORGANIZATION ( #110, #74 ) ;
#53 = PRODUCT_DEFINITION_FORMATION_WITH_SPECIFIED_SOURCE ( 'ANY', '', #108, .NOT_KNOWN. ) ;
#54 = ORIENTED_EDGE ( 'NONE', *, *, #101, .F. ) ;
#55 = DESIGN_CONTEXT ( 'detailed design', #51, 'design' ) ;
#56 = LOCAL_TIME ( 10, 39, 14.00000000000000000, #39 ) ;
#57 = DIRECTION ( 'NONE',  ( 1.000000000000000000, 0.0000000000000000000, 0.0000000000000000000 ) ) ;
#58 = ORIENTED_EDGE ( 'NONE', *, *, #4, .T. ) ;
#59 = CARTESIAN_POINT ( 'NONE',  ( 0.8000000000000000444, 0.0000000000000000000, 6.250000000000000000 ) ) ;
#60 =( GEOMETRIC_REPRESENTATION_CONTEXT ( 3 ) GLOBAL_UNCERTAINTY_ASSIGNED_CONTEXT ( ( #90 ) ) GLOBAL_UNIT_ASSIGNED_CONTEXT ( ( #133, #170, #7 ) ) REPRESENTATION_CONTEXT ( 'NONE', 'WORKASPACE' ) );
#61 = CARTESIAN_POINT ( 'NONE',  ( -0.8000000000000000444, 0.0000000000000000000, 0.0000000000000000000 ) ) ;
#62 = ORIENTED_EDGE ( 'NONE', *, *, #101, .T. ) ;
#63 = DIRECTION ( 'NONE',  ( 1.000000000000000000, 0.0000000000000000000, 0.0000000000000000000 ) ) ;
#64 = APPROVAL ( #149, 'UNSPECIFIED' ) ;
#65 = LOCAL_TIME ( 10, 39, 14.00000000000000000, #140 ) ;
#66 = APPROVAL_PERSON_ORGANIZATION ( #29, #130, #123 ) ;
#67 = ADVANCED_FACE ( 'NONE', ( #172 ), #146, .T. ) ;
#68 = PERSON_AND_ORGANIZATION_ROLE ( 'creator' ) ;
#69 = LOCAL_TIME ( 10, 39, 14.00000000000000000, #127 ) ;
#70 = CIRCLE ( 'NONE', #174, 6.250000000000000000 ) ;
#71 = DATE_AND_TIME ( #19, #56 ) ;
#72 = APPROVAL_ROLE ( '' ) ;
#73 = LOCAL_TIME ( 10, 39, 14.00000000000000000, #37 ) ;
#74 = ORGANIZATION ( 'UNSPECIFIED', 'UNSPECIFIED', '' ) ;
#75 = VERTEX_POINT ( 'NONE', #129 ) ;
#76 = CC_DESIGN_PERSON_AND_ORGANIZATION_ASSIGNMENT ( #87, #150, ( #53 ) ) ;
#77 = FACE_OUTER_BOUND ( 'NONE', #124, .T. ) ;
#78 = CC_DESIGN_PERSON_AND_ORGANIZATION_ASSIGNMENT ( #22, #173, ( #82 ) ) ;
#79 = DIRECTION ( 'NONE',  ( 1.000000000000000000, 0.0000000000000000000, 0.0000000000000000000 ) ) ;
#80 = EDGE_CURVE ( 'NONE', #89, #128, #81, .T. ) ;
#81 = LINE ( 'NONE', #16, #38 ) ;
#82 = SECURITY_CLASSIFICATION ( '', '', #8 ) ;
#83 = APPROVAL_DATE_TIME ( #116, #64 ) ;
#84 = DIRECTION ( 'NONE',  ( -1.000000000000000000, -0.0000000000000000000, -0.0000000000000000000 ) ) ;
#85 = DATE_TIME_ROLE ( 'creation_date' ) ;
#86 = CC_DESIGN_APPROVAL ( #130, ( #82 ) ) ;
#87 = PERSON_AND_ORGANIZATION ( #110, #74 ) ;
#88 = CC_DESIGN_PERSON_AND_ORGANIZATION_ASSIGNMENT ( #52, #68, ( #21 ) ) ;
#89 = VERTEX_POINT ( 'NONE', #59 ) ;
#90 = UNCERTAINTY_MEASURE_WITH_UNIT (LENGTH_MEASURE( 1.000000000000000082E-05 ), #133, 'distance_accuracy_value', 'NONE');
#91 = CARTESIAN_POINT ( 'NONE',  ( 0.8000000000000000444, 0.0000000000000000000, 0.0000000000000000000 ) ) ;
#92 = PLANE ( 'NONE',  #157 ) ;
#93 = DATE_AND_TIME ( #158, #69 ) ;
#94 = CARTESIAN_POINT ( 'NONE',  ( 0.8000000000000000444, 0.0000000000000000000, 0.0000000000000000000 ) ) ;
#95 = CLOSED_SHELL ( 'NONE', ( #119, #67, #24, #171 ) ) ;
#96 = CC_DESIGN_APPROVAL ( #64, ( #53 ) ) ;
#97 = DIRECTION ( 'NONE',  ( -1.000000000000000000, -0.0000000000000000000, -0.0000000000000000000 ) ) ;
#98 = PERSON_AND_ORGANIZATION_ROLE ( 'creator' ) ;
#99 = PERSON_AND_ORGANIZATION ( #110, #74 ) ;
#100 = CC_DESIGN_PERSON_AND_ORGANIZATION_ASSIGNMENT ( #40, #98, ( #53 ) ) ;
#101 = EDGE_CURVE ( 'NONE', #75, #126, #33, .T. ) ;
#102 = ORIENTED_EDGE ( 'NONE', *, *, #80, .F. ) ;
#103 = APPROVAL_PERSON_ORGANIZATION ( #135, #64, #72 ) ;
#104 = ORIENTED_EDGE ( 'NONE', *, *, #3, .F. ) ;
#105 = CARTESIAN_POINT ( 'NONE',  ( 0.8000000000000000444, 7.654042494670957606E-16, -6.250000000000000000 ) ) ;
#106 = DIRECTION ( 'NONE',  ( -1.000000000000000000, -0.0000000000000000000, -0.0000000000000000000 ) ) ;
#107 = DIRECTION ( 'NONE',  ( 1.000000000000000000, 0.0000000000000000000, 0.0000000000000000000 ) ) ;
#108 = PRODUCT ( 'Web Model 12451_12451', 'Web Model 12451_12451', '', ( #120 ) ) ;
#109 = APPLICATION_PROTOCOL_DEFINITION ( 'international standard', 'config_control_design', 1994, #50 ) ;
#110 = PERSON ( 'UNSPECIFIED', 'UNSPECIFIED', 'UNSPECIFIED', ('UNSPECIFIED'), ('UNSPECIFIED'), ('UNSPECIFIED') ) ;
#111 = AXIS2_PLACEMENT_3D ( 'NONE', #166, #84, #143 ) ;
#112 = APPROVAL_STATUS ( 'not_yet_approved' ) ;
#113 = MANIFOLD_SOLID_BREP ( 'Boss-Extrude1', #95 ) ;
#114 = AXIS2_PLACEMENT_3D ( 'NONE', #42, #106, #18 ) ;
#115 = CIRCLE ( 'NONE', #14, 6.250000000000000000 ) ;
#116 = DATE_AND_TIME ( #6, #151 ) ;
#117 = FACE_OUTER_BOUND ( 'NONE', #25, .T. ) ;
#118 = DIRECTION ( 'NONE',  ( 0.0000000000000000000, 0.0000000000000000000, -1.000000000000000000 ) ) ;
#119 = ADVANCED_FACE ( 'NONE', ( #47 ), #28, .T. ) ;
#120 = MECHANICAL_CONTEXT ( 'NONE', #50, 'mechanical' ) ;
#121 = CARTESIAN_POINT ( 'NONE',  ( -0.8000000000000000444, 0.0000000000000000000, 6.250000000000000000 ) ) ;
#122 = CC_DESIGN_APPROVAL ( #141, ( #21 ) ) ;
#123 = APPROVAL_ROLE ( '' ) ;
#124 = EDGE_LOOP ( 'NONE', ( #17, #134 ) ) ;
#125 = AXIS2_PLACEMENT_3D ( 'NONE', #162, #57, #30 ) ;
#126 = VERTEX_POINT ( 'NONE', #5 ) ;
#127 = COORDINATED_UNIVERSAL_TIME_OFFSET ( 5, 0, .BEHIND. ) ;
#128 = VERTEX_POINT ( 'NONE', #121 ) ;
#129 = CARTESIAN_POINT ( 'NONE',  ( 0.8000000000000000444, 7.654042494670957606E-16, -6.250000000000000000 ) ) ;
#130 = APPROVAL ( #112, 'UNSPECIFIED' ) ;
#131 = CC_DESIGN_DATE_AND_TIME_ASSIGNMENT ( #153, #85, ( #21 ) ) ;
#132 = DIRECTION ( 'NONE',  ( 1.000000000000000000, 0.0000000000000000000, 0.0000000000000000000 ) ) ;
#133 =( LENGTH_UNIT ( ) NAMED_UNIT ( * ) SI_UNIT ( .MILLI., .METRE. ) );
#134 = ORIENTED_EDGE ( 'NONE', *, *, #13, .T. ) ;
#135 = PERSON_AND_ORGANIZATION ( #110, #74 ) ;
#136 = DATE_TIME_ROLE ( 'classification_date' ) ;
#137 = PRODUCT_RELATED_PRODUCT_CATEGORY ( 'detail', '', ( #108 ) ) ;
#138 = ORIENTED_EDGE ( 'NONE', *, *, #4, .F. ) ;
#139 = ORIENTED_EDGE ( 'NONE', *, *, #3, .T. ) ;
#140 = COORDINATED_UNIVERSAL_TIME_OFFSET ( 5, 0, .BEHIND. ) ;
#141 = APPROVAL ( #144, 'UNSPECIFIED' ) ;
#142 = APPLICATION_PROTOCOL_DEFINITION ( 'international standard', 'config_control_design', 1994, #51 ) ;
#143 = DIRECTION ( 'NONE',  ( 0.0000000000000000000, 0.0000000000000000000, 1.000000000000000000 ) ) ;
#144 = APPROVAL_STATUS ( 'not_yet_approved' ) ;
#145 = AXIS2_PLACEMENT_3D ( 'NONE', #156, #107, #118 ) ;
#146 = CYLINDRICAL_SURFACE ( 'NONE', #114, 6.250000000000000000 ) ;
#147 = CC_DESIGN_SECURITY_CLASSIFICATION ( #82, ( #53 ) ) ;
#148 = CALENDAR_DATE ( 2019, 1, 11 ) ;
#149 = APPROVAL_STATUS ( 'not_yet_approved' ) ;
#150 = PERSON_AND_ORGANIZATION_ROLE ( 'design_supplier' ) ;
#151 = LOCAL_TIME ( 10, 39, 14.00000000000000000, #43 ) ;
#152 = DIRECTION ( 'NONE',  ( 0.0000000000000000000, 0.0000000000000000000, -1.000000000000000000 ) ) ;
#153 = DATE_AND_TIME ( #12, #65 ) ;
#154 = APPROVAL_ROLE ( '' ) ;
#155 = APPROVAL_DATE_TIME ( #26, #130 ) ;
#156 = CARTESIAN_POINT ( 'NONE',  ( -0.8000000000000000444, 0.0000000000000000000, 0.0000000000000000000 ) ) ;
#157 = AXIS2_PLACEMENT_3D ( 'NONE', #2, #63, #165 ) ;
#158 = CALENDAR_DATE ( 2019, 1, 11 ) ;
#159 = ORIENTED_EDGE ( 'NONE', *, *, #80, .T. ) ;
#160 = AXIS2_PLACEMENT_3D ( 'NONE', #34, #32, #132 ) ;
#161 = CIRCLE ( 'NONE', #125, 6.250000000000000000 ) ;
#162 = CARTESIAN_POINT ( 'NONE',  ( -0.8000000000000000444, 0.0000000000000000000, 0.0000000000000000000 ) ) ;
#163 = SHAPE_DEFINITION_REPRESENTATION ( #49, #20 ) ;
#164 = ORIENTED_EDGE ( 'NONE', *, *, #13, .F. ) ;
#165 = DIRECTION ( 'NONE',  ( 0.0000000000000000000, 0.0000000000000000000, -1.000000000000000000 ) ) ;
#166 = CARTESIAN_POINT ( 'NONE',  ( 0.8000000000000000444, 0.0000000000000000000, 0.0000000000000000000 ) ) ;
#167 = PLANE ( 'NONE',  #145 ) ;
#168 = DIRECTION ( 'NONE',  ( -1.000000000000000000, -0.0000000000000000000, -0.0000000000000000000 ) ) ;
#169 = AXIS2_PLACEMENT_3D ( 'NONE', #94, #1, #46 ) ;
#170 =( NAMED_UNIT ( * ) PLANE_ANGLE_UNIT ( ) SI_UNIT ( $, .RADIAN. ) );
#171 = ADVANCED_FACE ( 'NONE', ( #117 ), #167, .F. ) ;
#172 = FACE_OUTER_BOUND ( 'NONE', #10, .T. ) ;
#173 = PERSON_AND_ORGANIZATION_ROLE ( 'classification_officer' ) ;
#174 = AXIS2_PLACEMENT_3D ( 'NONE', #61, #31, #152 ) ;
#175 = ORIENTED_EDGE ( 'NONE', *, *, #23, .F. ) ;
ENDSEC;
END-ISO-10303-21;
