ISO-10303-21;
HEADER;
FILE_DESCRIPTION (( 'STEP AP203' ),
    '1' );
FILE_NAME ('Web Model 63223.STEP',
    '2017-01-31T18:46:15',
    ( '' ),
    ( '' ),
    'SwSTEP 2.0',
    'SolidWorks 2016',
    '' );
FILE_SCHEMA (( 'CONFIG_CONTROL_DESIGN' ));
ENDSEC;

DATA;
#1 = VERTEX_POINT ( 'NONE', #15 ) ;
#2 = ORGANIZATION ( 'UNSPECIFIED', 'UNSPECIFIED', '' ) ;
#3 = DESIGN_CONTEXT ( 'detailed design', #103, 'design' ) ;
#4 = LINE ( 'NONE', #35, #17 ) ;
#5 = VECTOR ( 'NONE', #151, 1000.000000000000000 ) ;
#6 = ORIENTED_EDGE ( 'NONE', *, *, #88, .F. ) ;
#7 = VECTOR ( 'NONE', #31, 1000.000000000000000 ) ;
#8 = DIRECTION ( 'NONE',  ( -0.0000000000000000000, -1.000000000000000000, -0.0000000000000000000 ) ) ;
#9 = CALENDAR_DATE ( 2017, 31, 1 ) ;
#10 = DATE_TIME_ROLE ( 'creation_date' ) ;
#11 = SECURITY_CLASSIFICATION_LEVEL ( 'unclassified' ) ;
#12 = ORIENTED_EDGE ( 'NONE', *, *, #50, .F. ) ;
#13 = COORDINATED_UNIVERSAL_TIME_OFFSET ( 5, 0, .BEHIND. ) ;
#14 = EDGE_CURVE ( 'NONE', #146, #42, #44, .T. ) ;
#15 = CARTESIAN_POINT ( 'NONE',  ( 10.00000000000000000, 10.00000000000000000, 0.0000000000000000000 ) ) ;
#16 = CARTESIAN_POINT ( 'NONE',  ( 0.0000000000000000000, 10.00000000000000000, 1.600000000000000100 ) ) ;
#17 = VECTOR ( 'NONE', #169, 1000.000000000000000 ) ;
#18 = DIRECTION ( 'NONE',  ( -1.000000000000000000, 0.0000000000000000000, -0.0000000000000000000 ) ) ;
#19 = PERSON_AND_ORGANIZATION ( #122, #2 ) ;
#20 = CARTESIAN_POINT ( 'NONE',  ( 0.0000000000000000000, 0.0000000000000000000, 1.600000000000000100 ) ) ;
#21 = ADVANCED_FACE ( 'NONE', ( #141 ), #166, .F. ) ;
#22 = DIRECTION ( 'NONE',  ( 0.0000000000000000000, 1.000000000000000000, 0.0000000000000000000 ) ) ;
#23 = APPROVAL_STATUS ( 'not_yet_approved' ) ;
#24 = DATE_AND_TIME ( #71, #127 ) ;
#25 = VECTOR ( 'NONE', #8, 1000.000000000000000 ) ;
#26 = ORIENTED_EDGE ( 'NONE', *, *, #34, .T. ) ;
#27 = VECTOR ( 'NONE', #114, 1000.000000000000000 ) ;
#28 = DIRECTION ( 'NONE',  ( 0.0000000000000000000, -0.0000000000000000000, 1.000000000000000000 ) ) ;
#29 = ORIENTED_EDGE ( 'NONE', *, *, #14, .F. ) ;
#30 = CARTESIAN_POINT ( 'NONE',  ( 10.00000000000000000, 0.0000000000000000000, 1.600000000000000100 ) ) ;
#31 = DIRECTION ( 'NONE',  ( -0.0000000000000000000, -0.0000000000000000000, -1.000000000000000000 ) ) ;
#32 = COORDINATED_UNIVERSAL_TIME_OFFSET ( 5, 0, .BEHIND. ) ;
#33 = MECHANICAL_CONTEXT ( 'NONE', #155, 'mechanical' ) ;
#34 = EDGE_CURVE ( 'NONE', #138, #204, #83, .T. ) ;
#35 = CARTESIAN_POINT ( 'NONE',  ( 0.0000000000000000000, 0.0000000000000000000, 1.600000000000000100 ) ) ;
#36 = DIRECTION ( 'NONE',  ( -0.0000000000000000000, -0.0000000000000000000, -1.000000000000000000 ) ) ;
#37 = AXIS2_PLACEMENT_3D ( 'NONE', #225, #120, #18 ) ;
#38 = ORIENTED_EDGE ( 'NONE', *, *, #222, .F. ) ;
#39 = DIRECTION ( 'NONE',  ( 1.000000000000000000, 0.0000000000000000000, 0.0000000000000000000 ) ) ;
#40 = DIRECTION ( 'NONE',  ( -1.000000000000000000, 0.0000000000000000000, -0.0000000000000000000 ) ) ;
#41 = APPLICATION_PROTOCOL_DEFINITION ( 'international standard', 'config_control_design', 1994, #103 ) ;
#42 = VERTEX_POINT ( 'NONE', #67 ) ;
#43 = CALENDAR_DATE ( 2017, 31, 1 ) ;
#44 = LINE ( 'NONE', #148, #5 ) ;
#45 = AXIS2_PLACEMENT_3D ( 'NONE', #182, #199, #93 ) ;
#46 = EDGE_LOOP ( 'NONE', ( #171, #6, #29, #64 ) ) ;
#47 = ORIENTED_EDGE ( 'NONE', *, *, #14, .T. ) ;
#48 = LOCAL_TIME ( 13, 46, 15.00000000000000000, #106 ) ;
#49 = EDGE_CURVE ( 'NONE', #204, #61, #128, .T. ) ;
#50 = EDGE_CURVE ( 'NONE', #61, #217, #175, .T. ) ;
#51 = PLANE ( 'NONE',  #45 ) ;
#52 = LOCAL_TIME ( 13, 46, 15.00000000000000000, #113 ) ;
#53 = CARTESIAN_POINT ( 'NONE',  ( 0.0000000000000000000, 0.0000000000000000000, 1.600000000000000100 ) ) ;
#54 = DIRECTION ( 'NONE',  ( 0.0000000000000000000, 1.000000000000000000, 0.0000000000000000000 ) ) ;
#55 = EDGE_LOOP ( 'NONE', ( #105, #115, #111, #124 ) ) ;
#56 = ORIENTED_EDGE ( 'NONE', *, *, #88, .T. ) ;
#57 = DATE_AND_TIME ( #108, #159 ) ;
#58 = CARTESIAN_POINT ( 'NONE',  ( 0.0000000000000000000, 10.00000000000000000, 1.600000000000000100 ) ) ;
#59 = ADVANCED_FACE ( 'NONE', ( #157 ), #51, .F. ) ;
#60 = EDGE_CURVE ( 'NONE', #1, #61, #125, .T. ) ;
#61 = VERTEX_POINT ( 'NONE', #202 ) ;
#62 = PERSON_AND_ORGANIZATION ( #122, #2 ) ;
#63 = CC_DESIGN_PERSON_AND_ORGANIZATION_ASSIGNMENT ( #229, #215, ( #147 ) ) ;
#64 = ORIENTED_EDGE ( 'NONE', *, *, #178, .T. ) ;
#65 = VECTOR ( 'NONE', #165, 1000.000000000000000 ) ;
#66 = APPROVAL_DATE_TIME ( #24, #234 ) ;
#67 = CARTESIAN_POINT ( 'NONE',  ( 10.00000000000000000, 0.0000000000000000000, 1.600000000000000100 ) ) ;
#68 = CLOSED_SHELL ( 'NONE', ( #158, #21, #211, #59, #137, #80 ) ) ;
#69 = CC_DESIGN_APPROVAL ( #133, ( #147 ) ) ;
#70 = CARTESIAN_POINT ( 'NONE',  ( 10.00000000000000000, 10.00000000000000000, 1.600000000000000100 ) ) ;
#71 = CALENDAR_DATE ( 2017, 31, 1 ) ;
#72 = CARTESIAN_POINT ( 'NONE',  ( 10.00000000000000000, 0.0000000000000000000, 0.0000000000000000000 ) ) ;
#73 = VECTOR ( 'NONE', #149, 1000.000000000000000 ) ;
#74 = DIRECTION ( 'NONE',  ( -1.000000000000000000, 0.0000000000000000000, 0.0000000000000000000 ) ) ;
#75 = PRODUCT_DEFINITION ( 'UNKNOWN', '', #82, #3 ) ;
#76 = DIRECTION ( 'NONE',  ( 1.000000000000000000, 0.0000000000000000000, 0.0000000000000000000 ) ) ;
#77 = ADVANCED_BREP_SHAPE_REPRESENTATION ( 'Web Model 63223', ( #162, #181 ), #121 ) ;
#78 = LINE ( 'NONE', #186, #232 ) ;
#79 = EDGE_CURVE ( 'NONE', #42, #138, #92, .T. ) ;
#80 = ADVANCED_FACE ( 'NONE', ( #221 ), #97, .T. ) ;
#81 = VECTOR ( 'NONE', #54, 1000.000000000000000 ) ;
#82 = PRODUCT_DEFINITION_FORMATION_WITH_SPECIFIED_SOURCE ( 'ANY', '', #116, .NOT_KNOWN. ) ;
#83 = LINE ( 'NONE', #94, #27 ) ;
#84 = APPROVAL_DATE_TIME ( #57, #133 ) ;
#85 = ORIENTED_EDGE ( 'NONE', *, *, #49, .F. ) ;
#86 = LINE ( 'NONE', #72, #172 ) ;
#87 = CC_DESIGN_APPROVAL ( #234, ( #82 ) ) ;
#88 = EDGE_CURVE ( 'NONE', #42, #144, #236, .T. ) ;
#89 = APPROVAL_PERSON_ORGANIZATION ( #139, #234, #193 ) ;
#90 = PRODUCT_RELATED_PRODUCT_CATEGORY ( 'detail', '', ( #116 ) ) ;
#91 = ORIENTED_EDGE ( 'NONE', *, *, #95, .T. ) ;
#92 = LINE ( 'NONE', #30, #81 ) ;
#93 = DIRECTION ( 'NONE',  ( 0.0000000000000000000, -0.0000000000000000000, -1.000000000000000000 ) ) ;
#94 = CARTESIAN_POINT ( 'NONE',  ( 0.0000000000000000000, 10.00000000000000000, 1.600000000000000100 ) ) ;
#95 = EDGE_CURVE ( 'NONE', #138, #1, #180, .T. ) ;
#96 = CARTESIAN_POINT ( 'NONE',  ( 10.00000000000000000, 0.0000000000000000000, 1.600000000000000100 ) ) ;
#97 = PLANE ( 'NONE',  #37 ) ;
#98 = CARTESIAN_POINT ( 'NONE',  ( 0.0000000000000000000, 0.0000000000000000000, 0.0000000000000000000 ) ) ;
#99 = CARTESIAN_POINT ( 'NONE',  ( 0.0000000000000000000, 0.0000000000000000000, 1.600000000000000100 ) ) ;
#100 = PERSON_AND_ORGANIZATION ( #122, #2 ) ;
#101 = DIRECTION ( 'NONE',  ( 0.0000000000000000000, 0.0000000000000000000, 1.000000000000000000 ) ) ;
#102 = EDGE_CURVE ( 'NONE', #217, #144, #78, .T. ) ;
#103 = APPLICATION_CONTEXT ( 'configuration controlled 3d designs of mechanical parts and assemblies' ) ;
#104 = CC_DESIGN_PERSON_AND_ORGANIZATION_ASSIGNMENT ( #19, #235, ( #82 ) ) ;
#105 = ORIENTED_EDGE ( 'NONE', *, *, #50, .T. ) ;
#106 = COORDINATED_UNIVERSAL_TIME_OFFSET ( 5, 0, .BEHIND. ) ;
#107 = APPROVAL_ROLE ( '' ) ;
#108 = CALENDAR_DATE ( 2017, 31, 1 ) ;
#109 = APPROVAL_STATUS ( 'not_yet_approved' ) ;
#110 = VECTOR ( 'NONE', #36, 1000.000000000000000 ) ;
#111 = ORIENTED_EDGE ( 'NONE', *, *, #190, .F. ) ;
#112 = UNCERTAINTY_MEASURE_WITH_UNIT (LENGTH_MEASURE( 1.000000000000000100E-005 ), #230, 'distance_accuracy_value', 'NONE');
#113 = COORDINATED_UNIVERSAL_TIME_OFFSET ( 5, 0, .BEHIND. ) ;
#114 = DIRECTION ( 'NONE',  ( -1.000000000000000000, -0.0000000000000000000, -0.0000000000000000000 ) ) ;
#115 = ORIENTED_EDGE ( 'NONE', *, *, #178, .F. ) ;
#116 = PRODUCT ( 'Web Model 63223', 'Web Model 63223', '', ( #33 ) ) ;
#117 = PERSON_AND_ORGANIZATION ( #122, #2 ) ;
#118 = AXIS2_PLACEMENT_3D ( 'NONE', #99, #76, #189 ) ;
#119 = ORIENTED_EDGE ( 'NONE', *, *, #34, .F. ) ;
#120 = DIRECTION ( 'NONE',  ( 0.0000000000000000000, 0.0000000000000000000, -1.000000000000000000 ) ) ;
#121 =( GEOMETRIC_REPRESENTATION_CONTEXT ( 3 ) GLOBAL_UNCERTAINTY_ASSIGNED_CONTEXT ( ( #112 ) ) GLOBAL_UNIT_ASSIGNED_CONTEXT ( ( #230, #170, #123 ) ) REPRESENTATION_CONTEXT ( 'NONE', 'WORKASPACE' ) );
#122 = PERSON ( 'UNSPECIFIED', 'UNSPECIFIED', 'UNSPECIFIED', ('UNSPECIFIED'), ('UNSPECIFIED'), ('UNSPECIFIED') ) ;
#123 =( NAMED_UNIT ( * ) SI_UNIT ( $, .STERADIAN. ) SOLID_ANGLE_UNIT ( ) );
#124 = ORIENTED_EDGE ( 'NONE', *, *, #49, .T. ) ;
#125 = LINE ( 'NONE', #205, #65 ) ;
#126 = DATE_AND_TIME ( #194, #145 ) ;
#127 = LOCAL_TIME ( 13, 46, 15.00000000000000000, #32 ) ;
#128 = LINE ( 'NONE', #16, #73 ) ;
#129 = DIRECTION ( 'NONE',  ( 0.0000000000000000000, 1.000000000000000000, 0.0000000000000000000 ) ) ;
#130 = CC_DESIGN_APPROVAL ( #173, ( #75 ) ) ;
#131 = PLANE ( 'NONE',  #118 ) ;
#132 = PERSON_AND_ORGANIZATION ( #122, #2 ) ;
#133 = APPROVAL ( #109, 'UNSPECIFIED' ) ;
#134 = PLANE ( 'NONE',  #219 ) ;
#135 = CARTESIAN_POINT ( 'NONE',  ( 10.00000000000000000, 0.0000000000000000000, 0.0000000000000000000 ) ) ;
#136 = ORIENTED_EDGE ( 'NONE', *, *, #102, .F. ) ;
#137 = ADVANCED_FACE ( 'NONE', ( #161 ), #134, .F. ) ;
#138 = VERTEX_POINT ( 'NONE', #210 ) ;
#139 = PERSON_AND_ORGANIZATION ( #122, #2 ) ;
#140 = EDGE_LOOP ( 'NONE', ( #201, #47, #228, #26 ) ) ;
#141 = FACE_OUTER_BOUND ( 'NONE', #46, .T. ) ;
#142 = CC_DESIGN_DATE_AND_TIME_ASSIGNMENT ( #185, #10, ( #75 ) ) ;
#143 = SHAPE_DEFINITION_REPRESENTATION ( #224, #77 ) ;
#144 = VERTEX_POINT ( 'NONE', #135 ) ;
#145 = LOCAL_TIME ( 13, 46, 15.00000000000000000, #13 ) ;
#146 = VERTEX_POINT ( 'NONE', #187 ) ;
#147 = SECURITY_CLASSIFICATION ( '', '', #11 ) ;
#148 = CARTESIAN_POINT ( 'NONE',  ( 0.0000000000000000000, 0.0000000000000000000, 1.600000000000000100 ) ) ;
#149 = DIRECTION ( 'NONE',  ( -0.0000000000000000000, -0.0000000000000000000, -1.000000000000000000 ) ) ;
#150 = PERSON_AND_ORGANIZATION ( #122, #2 ) ;
#151 = DIRECTION ( 'NONE',  ( 1.000000000000000000, 0.0000000000000000000, 0.0000000000000000000 ) ) ;
#152 = COORDINATED_UNIVERSAL_TIME_OFFSET ( 5, 0, .BEHIND. ) ;
#153 = EDGE_LOOP ( 'NONE', ( #160, #85, #119, #91 ) ) ;
#154 = CARTESIAN_POINT ( 'NONE',  ( 10.00000000000000000, 0.0000000000000000000, 1.600000000000000100 ) ) ;
#155 = APPLICATION_CONTEXT ( 'configuration controlled 3d designs of mechanical parts and assemblies' ) ;
#156 = ORIENTED_EDGE ( 'NONE', *, *, #60, .F. ) ;
#157 = FACE_OUTER_BOUND ( 'NONE', #153, .T. ) ;
#158 = ADVANCED_FACE ( 'NONE', ( #164 ), #131, .F. ) ;
#159 = LOCAL_TIME ( 13, 46, 15.00000000000000000, #152 ) ;
#160 = ORIENTED_EDGE ( 'NONE', *, *, #60, .T. ) ;
#161 = FACE_OUTER_BOUND ( 'NONE', #140, .T. ) ;
#162 = MANIFOLD_SOLID_BREP ( 'Extrude1', #68 ) ;
#163 = EDGE_LOOP ( 'NONE', ( #214, #220, #176, #56 ) ) ;
#164 = FACE_OUTER_BOUND ( 'NONE', #55, .T. ) ;
#165 = DIRECTION ( 'NONE',  ( -1.000000000000000000, -0.0000000000000000000, -0.0000000000000000000 ) ) ;
#166 = PLANE ( 'NONE',  #200 ) ;
#167 = DIRECTION ( 'NONE',  ( -0.0000000000000000000, -0.0000000000000000000, -1.000000000000000000 ) ) ;
#168 = PERSON_AND_ORGANIZATION_ROLE ( 'design_owner' ) ;
#169 = DIRECTION ( 'NONE',  ( -0.0000000000000000000, -1.000000000000000000, -0.0000000000000000000 ) ) ;
#170 =( NAMED_UNIT ( * ) PLANE_ANGLE_UNIT ( ) SI_UNIT ( $, .RADIAN. ) );
#171 = ORIENTED_EDGE ( 'NONE', *, *, #102, .T. ) ;
#172 = VECTOR ( 'NONE', #22, 1000.000000000000000 ) ;
#173 = APPROVAL ( #23, 'UNSPECIFIED' ) ;
#174 = APPROVAL_PERSON_ORGANIZATION ( #62, #173, #197 ) ;
#175 = LINE ( 'NONE', #184, #25 ) ;
#176 = ORIENTED_EDGE ( 'NONE', *, *, #79, .F. ) ;
#177 = DATE_TIME_ROLE ( 'classification_date' ) ;
#178 = EDGE_CURVE ( 'NONE', #146, #217, #227, .T. ) ;
#179 = CC_DESIGN_PERSON_AND_ORGANIZATION_ASSIGNMENT ( #132, #195, ( #82 ) ) ;
#180 = LINE ( 'NONE', #70, #223 ) ;
#181 = AXIS2_PLACEMENT_3D ( 'NONE', #188, #101, #207 ) ;
#182 = CARTESIAN_POINT ( 'NONE',  ( 0.0000000000000000000, 10.00000000000000000, 1.600000000000000100 ) ) ;
#183 = FACE_OUTER_BOUND ( 'NONE', #163, .T. ) ;
#184 = CARTESIAN_POINT ( 'NONE',  ( 0.0000000000000000000, 0.0000000000000000000, 0.0000000000000000000 ) ) ;
#185 = DATE_AND_TIME ( #43, #48 ) ;
#186 = CARTESIAN_POINT ( 'NONE',  ( 0.0000000000000000000, 0.0000000000000000000, 0.0000000000000000000 ) ) ;
#187 = CARTESIAN_POINT ( 'NONE',  ( 0.0000000000000000000, 0.0000000000000000000, 1.600000000000000100 ) ) ;
#188 = CARTESIAN_POINT ( 'NONE',  ( 0.0000000000000000000, 0.0000000000000000000, 0.0000000000000000000 ) ) ;
#189 = DIRECTION ( 'NONE',  ( 0.0000000000000000000, 0.0000000000000000000, -1.000000000000000000 ) ) ;
#190 = EDGE_CURVE ( 'NONE', #204, #146, #4, .T. ) ;
#191 = DIRECTION ( 'NONE',  ( 0.0000000000000000000, 0.0000000000000000000, -1.000000000000000000 ) ) ;
#192 = CC_DESIGN_SECURITY_CLASSIFICATION ( #147, ( #82 ) ) ;
#193 = APPROVAL_ROLE ( '' ) ;
#194 = CALENDAR_DATE ( 2017, 31, 1 ) ;
#195 = PERSON_AND_ORGANIZATION_ROLE ( 'design_supplier' ) ;
#196 = APPROVAL_PERSON_ORGANIZATION ( #100, #133, #107 ) ;
#197 = APPROVAL_ROLE ( '' ) ;
#198 = CC_DESIGN_PERSON_AND_ORGANIZATION_ASSIGNMENT ( #117, #168, ( #116 ) ) ;
#199 = DIRECTION ( 'NONE',  ( 0.0000000000000000000, -1.000000000000000000, 0.0000000000000000000 ) ) ;
#200 = AXIS2_PLACEMENT_3D ( 'NONE', #53, #129, #28 ) ;
#201 = ORIENTED_EDGE ( 'NONE', *, *, #190, .T. ) ;
#202 = CARTESIAN_POINT ( 'NONE',  ( 0.0000000000000000000, 10.00000000000000000, 0.0000000000000000000 ) ) ;
#203 = APPROVAL_DATE_TIME ( #126, #173 ) ;
#204 = VERTEX_POINT ( 'NONE', #209 ) ;
#205 = CARTESIAN_POINT ( 'NONE',  ( 0.0000000000000000000, 10.00000000000000000, 0.0000000000000000000 ) ) ;
#206 = DATE_AND_TIME ( #9, #52 ) ;
#207 = DIRECTION ( 'NONE',  ( 1.000000000000000000, 0.0000000000000000000, 0.0000000000000000000 ) ) ;
#208 = AXIS2_PLACEMENT_3D ( 'NONE', #154, #74, #212 ) ;
#209 = CARTESIAN_POINT ( 'NONE',  ( 0.0000000000000000000, 10.00000000000000000, 1.600000000000000100 ) ) ;
#210 = CARTESIAN_POINT ( 'NONE',  ( 10.00000000000000000, 10.00000000000000000, 1.600000000000000100 ) ) ;
#211 = ADVANCED_FACE ( 'NONE', ( #183 ), #231, .F. ) ;
#212 = DIRECTION ( 'NONE',  ( 0.0000000000000000000, 0.0000000000000000000, 1.000000000000000000 ) ) ;
#213 = EDGE_LOOP ( 'NONE', ( #12, #156, #38, #136 ) ) ;
#214 = ORIENTED_EDGE ( 'NONE', *, *, #222, .T. ) ;
#215 = PERSON_AND_ORGANIZATION_ROLE ( 'classification_officer' ) ;
#216 = PERSON_AND_ORGANIZATION_ROLE ( 'creator' ) ;
#217 = VERTEX_POINT ( 'NONE', #98 ) ;
#218 = APPROVAL_STATUS ( 'not_yet_approved' ) ;
#219 = AXIS2_PLACEMENT_3D ( 'NONE', #58, #191, #40 ) ;
#220 = ORIENTED_EDGE ( 'NONE', *, *, #95, .F. ) ;
#221 = FACE_OUTER_BOUND ( 'NONE', #213, .T. ) ;
#222 = EDGE_CURVE ( 'NONE', #144, #1, #86, .T. ) ;
#223 = VECTOR ( 'NONE', #167, 1000.000000000000000 ) ;
#224 = PRODUCT_DEFINITION_SHAPE ( 'NONE', 'NONE',  #75 ) ;
#225 = CARTESIAN_POINT ( 'NONE',  ( 0.0000000000000000000, 10.00000000000000000, 0.0000000000000000000 ) ) ;
#226 = CC_DESIGN_PERSON_AND_ORGANIZATION_ASSIGNMENT ( #150, #216, ( #75 ) ) ;
#227 = LINE ( 'NONE', #20, #110 ) ;
#228 = ORIENTED_EDGE ( 'NONE', *, *, #79, .T. ) ;
#229 = PERSON_AND_ORGANIZATION ( #122, #2 ) ;
#230 =( LENGTH_UNIT ( ) NAMED_UNIT ( * ) SI_UNIT ( .MILLI., .METRE. ) );
#231 = PLANE ( 'NONE',  #208 ) ;
#232 = VECTOR ( 'NONE', #39, 1000.000000000000000 ) ;
#233 = APPLICATION_PROTOCOL_DEFINITION ( 'international standard', 'config_control_design', 1994, #155 ) ;
#234 = APPROVAL ( #218, 'UNSPECIFIED' ) ;
#235 = PERSON_AND_ORGANIZATION_ROLE ( 'creator' ) ;
#236 = LINE ( 'NONE', #96, #7 ) ;
#237 = CC_DESIGN_DATE_AND_TIME_ASSIGNMENT ( #206, #177, ( #147 ) ) ;
ENDSEC;
END-ISO-10303-21;
