ISO-10303-21;
HEADER;
FILE_DESCRIPTION (( 'STEP AP203' ),
    '1' );
FILE_NAME ('Ø25mm High Energy Laser Line Polarizer_86716.step',
    '2018-07-19T13:01:14',
    ( '' ),
    ( '' ),
    'SwSTEP 2.0',
    'SolidWorks 2016',
    '' );
FILE_SCHEMA (( 'CONFIG_CONTROL_DESIGN' ));
ENDSEC;

DATA;
#1 = ORIENTED_EDGE ( 'NONE', *, *, #123, .F. ) ;
#2 = CONICAL_SURFACE ( 'NONE', #100, 0.4921259842519685200, 0.7853981633974531600 ) ;
#3 = ORIENTED_EDGE ( 'NONE', *, *, #269, .F. ) ;
#4 = EDGE_CURVE ( 'NONE', #135, #143, #83, .T. ) ;
#5 = CLOSED_SHELL ( 'NONE', ( #249, #207, #137, #185, #52, #17, #34, #99 ) ) ;
#6 = PLANE ( 'NONE',  #190 ) ;
#7 = AXIS2_PLACEMENT_3D ( 'NONE', #219, #89, #105 ) ;
#8 = DIRECTION ( 'NONE',  ( 1.000000000000000000, 0.0000000000000000000, 0.0000000000000000000 ) ) ;
#9 = DIRECTION ( 'NONE',  ( -1.000000000000000000, 0.0000000000000000000, 0.0000000000000000000 ) ) ;
#10 = PERSON_AND_ORGANIZATION ( #45, #108 ) ;
#11 = VECTOR ( 'NONE', #74, 39.37007874015748900 ) ;
#12 = DIRECTION ( 'NONE',  ( 0.7071067811865440200, 8.659560562354888500E-017, -0.7071067811865510100 ) ) ;
#13 = ORIENTED_EDGE ( 'NONE', *, *, #267, .F. ) ;
#14 = APPLICATION_CONTEXT ( 'configuration controlled 3d designs of mechanical parts and assemblies' ) ;
#15 = APPROVAL_STATUS ( 'not_yet_approved' ) ;
#16 = CIRCLE ( 'NONE', #7, 0.4851662718503940700 ) ;
#17 = ADVANCED_FACE ( 'NONE', ( #138 ), #6, .F. ) ;
#18 = CIRCLE ( 'NONE', #59, 0.4851662718503937900 ) ;
#19 = DIRECTION ( 'NONE',  ( 0.0000000000000000000, 0.0000000000000000000, 1.000000000000000000 ) ) ;
#20 = DIRECTION ( 'NONE',  ( 1.000000000000000000, 0.0000000000000000000, 0.0000000000000000000 ) ) ;
#21 = DIRECTION ( 'NONE',  ( 1.000000000000000000, 0.0000000000000000000, 0.0000000000000000000 ) ) ;
#22 = CARTESIAN_POINT ( 'NONE',  ( -0.8596363832680253800, 1.220614474678271000, -0.4937592923385106800 ) ) ;
#23 = FACE_OUTER_BOUND ( 'NONE', #251, .T. ) ;
#24 = ORIENTED_EDGE ( 'NONE', *, *, #144, .F. ) ;
#25 = CALENDAR_DATE ( 2018, 19, 7 ) ;
#26 = DIRECTION ( 'NONE',  ( -0.0000000000000000000, -0.0000000000000000000, -1.000000000000000000 ) ) ;
#27 = VERTEX_POINT ( 'NONE', #152 ) ;
#28 = DIRECTION ( 'NONE',  ( -0.0000000000000000000, -0.0000000000000000000, 1.000000000000000000 ) ) ;
#29 = AXIS2_PLACEMENT_3D ( 'NONE', #262, #155, #8 ) ;
#30 = COORDINATED_UNIVERSAL_TIME_OFFSET ( 5, 0, .BEHIND. ) ;
#31 = CIRCLE ( 'NONE', #109, 0.4921259842519685200 ) ;
#32 =( NAMED_UNIT ( * ) SI_UNIT ( $, .STERADIAN. ) SOLID_ANGLE_UNIT ( ) );
#33 = PERSON_AND_ORGANIZATION_ROLE ( 'creator' ) ;
#34 = ADVANCED_FACE ( 'NONE', ( #171 ), #48, .T. ) ;
#35 = VERTEX_POINT ( 'NONE', #42 ) ;
#36 = MECHANICAL_CONTEXT ( 'NONE', #14, 'mechanical' ) ;
#37 = EDGE_CURVE ( 'NONE', #65, #125, #16, .T. ) ;
#38 = AXIS2_PLACEMENT_3D ( 'NONE', #73, #26, #266 ) ;
#39 = ORIENTED_EDGE ( 'NONE', *, *, #61, .F. ) ;
#40 = ORIENTED_EDGE ( 'NONE', *, *, #232, .T. ) ;
#41 = AXIS2_PLACEMENT_3D ( 'NONE', #175, #19, #20 ) ;
#42 = CARTESIAN_POINT ( 'NONE',  ( -0.3675103990160568700, 1.220614474678271000, -0.4867995799369360100 ) ) ;
#43 = CONICAL_SURFACE ( 'NONE', #192, 0.4851662718503939600, 0.7853981633974433900 ) ;
#44 = DIRECTION ( 'NONE',  ( -0.0000000000000000000, -0.0000000000000000000, 1.000000000000000000 ) ) ;
#45 = PERSON ( 'UNSPECIFIED', 'UNSPECIFIED', 'UNSPECIFIED', ('UNSPECIFIED'), ('UNSPECIFIED'), ('UNSPECIFIED') ) ;
#46 = ORIENTED_EDGE ( 'NONE', *, *, #267, .T. ) ;
#47 = CARTESIAN_POINT ( 'NONE',  ( -0.8596363832680253800, 1.220614474678271000, -0.4867995799369360100 ) ) ;
#48 = CONICAL_SURFACE ( 'NONE', #172, 0.4921259842519685200, 0.7853981633974531600 ) ;
#49 = DIRECTION ( 'NONE',  ( -1.000000000000000000, 0.0000000000000000000, 0.0000000000000000000 ) ) ;
#50 = CC_DESIGN_PERSON_AND_ORGANIZATION_ASSIGNMENT ( #238, #78, ( #245 ) ) ;
#51 = DIRECTION ( 'NONE',  ( -0.0000000000000000000, -0.0000000000000000000, 1.000000000000000000 ) ) ;
#52 = ADVANCED_FACE ( 'NONE', ( #149 ), #241, .T. ) ;
#53 =( NAMED_UNIT ( * ) PLANE_ANGLE_UNIT ( ) SI_UNIT ( $, .RADIAN. ) );
#54 = CALENDAR_DATE ( 2018, 19, 7 ) ;
#55 = PERSON_AND_ORGANIZATION ( #45, #108 ) ;
#56 = PERSON_AND_ORGANIZATION_ROLE ( 'creator' ) ;
#57 = EDGE_LOOP ( 'NONE', ( #24, #168, #188, #275 ) ) ;
#58 = LENGTH_MEASURE_WITH_UNIT ( LENGTH_MEASURE( 0.02539999999999999900 ), #70 );
#59 = AXIS2_PLACEMENT_3D ( 'NONE', #204, #201, #91 ) ;
#60 = LOCAL_TIME ( 9, 1, 14.00000000000000000, #68 ) ;
#61 = EDGE_CURVE ( 'NONE', #135, #119, #93, .T. ) ;
#62 = LINE ( 'NONE', #182, #11 ) ;
#63 = EDGE_LOOP ( 'NONE', ( #166, #181, #39, #200 ) ) ;
#64 = AXIS2_PLACEMENT_3D ( 'NONE', #176, #180, #112 ) ;
#65 = VERTEX_POINT ( 'NONE', #153 ) ;
#66 = CARTESIAN_POINT ( 'NONE',  ( -1.351762367519993900, 1.220614474678271000, -0.2575388198975657700 ) ) ;
#67 = DIRECTION ( 'NONE',  ( 1.000000000000000000, 0.0000000000000000000, -0.0000000000000000000 ) ) ;
#68 = COORDINATED_UNIVERSAL_TIME_OFFSET ( 5, 0, .BEHIND. ) ;
#69 = VECTOR ( 'NONE', #218, 39.37007874015748100 ) ;
#70 =( LENGTH_UNIT ( ) NAMED_UNIT ( * ) SI_UNIT ( $, .METRE. ) );
#71 = CARTESIAN_POINT ( 'NONE',  ( -1.351762367519993900, 1.220614474678271000, -0.4867995799369360100 ) ) ;
#72 = DATE_AND_TIME ( #195, #145 ) ;
#73 = CARTESIAN_POINT ( 'NONE',  ( -0.8596363832680253800, 1.220614474678271000, -0.2575388198975657700 ) ) ;
#74 = DIRECTION ( 'NONE',  ( 0.7071067811865509000, 0.0000000000000000000, 0.7071067811865440200 ) ) ;
#75 = APPROVAL_PERSON_ORGANIZATION ( #10, #277, #227 ) ;
#76 = LINE ( 'NONE', #258, #179 ) ;
#77 = CIRCLE ( 'NONE', #97, 0.4921259842519685200 ) ;
#78 = PERSON_AND_ORGANIZATION_ROLE ( 'design_supplier' ) ;
#79 = DIMENSIONAL_EXPONENTS ( 1.000000000000000000, 0.0000000000000000000, 0.0000000000000000000, 0.0000000000000000000, 0.0000000000000000000, 0.0000000000000000000, 0.0000000000000000000 ) ;
#80 = UNCERTAINTY_MEASURE_WITH_UNIT (LENGTH_MEASURE( 1.000000000000000100E-005 ), #270, 'distance_accuracy_value', 'NONE');
#81 = AXIS2_PLACEMENT_3D ( 'NONE', #265, #128, #261 ) ;
#82 = CIRCLE ( 'NONE', #41, 0.4851662718503940700 ) ;
#83 = LINE ( 'NONE', #66, #69 ) ;
#84 = EDGE_CURVE ( 'NONE', #35, #143, #77, .T. ) ;
#85 = CARTESIAN_POINT ( 'NONE',  ( -0.8596363832680253800, 1.220614474678271000, -0.4937592923385106800 ) ) ;
#86 = DIRECTION ( 'NONE',  ( 0.0000000000000000000, 0.0000000000000000000, 1.000000000000000000 ) ) ;
#87 = APPROVAL_PERSON_ORGANIZATION ( #148, #214, #162 ) ;
#88 = ORIENTED_EDGE ( 'NONE', *, *, #239, .T. ) ;
#89 = DIRECTION ( 'NONE',  ( 0.0000000000000000000, 0.0000000000000000000, 1.000000000000000000 ) ) ;
#90 = EDGE_CURVE ( 'NONE', #65, #135, #259, .T. ) ;
#91 = DIRECTION ( 'NONE',  ( 1.000000000000000000, 0.0000000000000000000, 0.0000000000000000000 ) ) ;
#92 = DIRECTION ( 'NONE',  ( 1.000000000000000000, 0.0000000000000000000, 0.0000000000000000000 ) ) ;
#93 = CIRCLE ( 'NONE', #29, 0.4921259842519685200 ) ;
#94 = APPROVAL_STATUS ( 'not_yet_approved' ) ;
#95 = CYLINDRICAL_SURFACE ( 'NONE', #38, 0.4921259842519684100 ) ;
#96 = PRODUCT_DEFINITION_SHAPE ( 'NONE', 'NONE',  #205 ) ;
#97 = AXIS2_PLACEMENT_3D ( 'NONE', #240, #106, #215 ) ;
#98 = EDGE_LOOP ( 'NONE', ( #237, #46, #233, #197 ) ) ;
#99 = ADVANCED_FACE ( 'NONE', ( #231 ), #43, .T. ) ;
#100 = AXIS2_PLACEMENT_3D ( 'NONE', #247, #51, #178 ) ;
#101 = EDGE_CURVE ( 'NONE', #276, #27, #110, .T. ) ;
#102 = ORIENTED_EDGE ( 'NONE', *, *, #101, .T. ) ;
#103 = DIRECTION ( 'NONE',  ( -0.0000000000000000000, -0.0000000000000000000, -1.000000000000000000 ) ) ;
#104 = CC_DESIGN_PERSON_AND_ORGANIZATION_ASSIGNMENT ( #206, #56, ( #245 ) ) ;
#105 = DIRECTION ( 'NONE',  ( 1.000000000000000000, 0.0000000000000000000, 0.0000000000000000000 ) ) ;
#106 = DIRECTION ( 'NONE',  ( -0.0000000000000000000, -0.0000000000000000000, 1.000000000000000000 ) ) ;
#107 = LOCAL_TIME ( 9, 1, 14.00000000000000000, #169 ) ;
#108 = ORGANIZATION ( 'UNSPECIFIED', 'UNSPECIFIED', '' ) ;
#109 = AXIS2_PLACEMENT_3D ( 'NONE', #224, #134, #158 ) ;
#110 = CIRCLE ( 'NONE', #129, 0.4851662718503937900 ) ;
#111 = EDGE_LOOP ( 'NONE', ( #121, #173 ) ) ;
#112 = DIRECTION ( 'NONE',  ( -1.000000000000000000, 0.0000000000000000000, 0.0000000000000000000 ) ) ;
#113 = PERSON_AND_ORGANIZATION_ROLE ( 'classification_officer' ) ;
#114 = VECTOR ( 'NONE', #244, 39.37007874015748100 ) ;
#115 =( GEOMETRIC_REPRESENTATION_CONTEXT ( 3 ) GLOBAL_UNCERTAINTY_ASSIGNED_CONTEXT ( ( #80 ) ) GLOBAL_UNIT_ASSIGNED_CONTEXT ( ( #270, #53, #32 ) ) REPRESENTATION_CONTEXT ( 'NONE', 'WORKASPACE' ) );
#116 = SECURITY_CLASSIFICATION_LEVEL ( 'unclassified' ) ;
#117 = PERSON_AND_ORGANIZATION ( #45, #108 ) ;
#118 = EDGE_CURVE ( 'NONE', #125, #65, #82, .T. ) ;
#119 = VERTEX_POINT ( 'NONE', #263 ) ;
#120 = SECURITY_CLASSIFICATION ( '', '', #116 ) ;
#121 = ORIENTED_EDGE ( 'NONE', *, *, #37, .T. ) ;
#122 = FACE_OUTER_BOUND ( 'NONE', #253, .T. ) ;
#123 = EDGE_CURVE ( 'NONE', #27, #276, #18, .T. ) ;
#124 = MANIFOLD_SOLID_BREP ( '83977310-1-solid1', #5 ) ;
#125 = VERTEX_POINT ( 'NONE', #126 ) ;
#126 = CARTESIAN_POINT ( 'NONE',  ( -0.3744701114176313100, 1.220614474678271000, -0.2575388198975657700 ) ) ;
#127 = VECTOR ( 'NONE', #199, 39.37007874015748100 ) ;
#128 = DIRECTION ( 'NONE',  ( 0.0000000000000000000, 0.0000000000000000000, 1.000000000000000000 ) ) ;
#129 = AXIS2_PLACEMENT_3D ( 'NONE', #85, #103, #21 ) ;
#130 = CARTESIAN_POINT ( 'NONE',  ( -1.351762367519993900, 1.220614474678271000, -0.2644985322991403300 ) ) ;
#131 = EDGE_LOOP ( 'NONE', ( #257, #235, #213, #255 ) ) ;
#132 = CARTESIAN_POINT ( 'NONE',  ( -0.8596363832680253800, 1.220614474678271000, -0.4867995799369360100 ) ) ;
#133 = CARTESIAN_POINT ( 'NONE',  ( -0.8596363832680253800, 1.220614474678271000, -0.2575388198975657700 ) ) ;
#134 = DIRECTION ( 'NONE',  ( 0.0000000000000000000, 0.0000000000000000000, -1.000000000000000000 ) ) ;
#135 = VERTEX_POINT ( 'NONE', #130 ) ;
#136 = CC_DESIGN_PERSON_AND_ORGANIZATION_ASSIGNMENT ( #117, #113, ( #120 ) ) ;
#137 = ADVANCED_FACE ( 'NONE', ( #273 ), #170, .T. ) ;
#138 = FACE_OUTER_BOUND ( 'NONE', #210, .T. ) ;
#139 = APPLICATION_PROTOCOL_DEFINITION ( 'international standard', 'config_control_design', 1994, #274 ) ;
#140 = DESIGN_CONTEXT ( 'detailed design', #274, 'design' ) ;
#141 = CC_DESIGN_PERSON_AND_ORGANIZATION_ASSIGNMENT ( #55, #209, ( #222 ) ) ;
#142 = CARTESIAN_POINT ( 'NONE',  ( -0.3744701114176315900, 1.220614474678271000, -0.4937592923385106800 ) ) ;
#143 = VERTEX_POINT ( 'NONE', #156 ) ;
#144 = EDGE_CURVE ( 'NONE', #125, #119, #76, .T. ) ;
#145 = LOCAL_TIME ( 9, 1, 14.00000000000000000, #246 ) ;
#146 = AXIS2_PLACEMENT_3D ( 'NONE', #47, #28, #92 ) ;
#147 = SHAPE_DEFINITION_REPRESENTATION ( #96, #159 ) ;
#148 = PERSON_AND_ORGANIZATION ( #45, #108 ) ;
#149 = FACE_OUTER_BOUND ( 'NONE', #111, .T. ) ;
#150 = DIRECTION ( 'NONE',  ( 0.0000000000000000000, 0.0000000000000000000, -1.000000000000000000 ) ) ;
#151 = APPROVAL ( #94, 'UNSPECIFIED' ) ;
#152 = CARTESIAN_POINT ( 'NONE',  ( -1.344802655118419300, 1.220614474678271000, -0.4937592923385106800 ) ) ;
#153 = CARTESIAN_POINT ( 'NONE',  ( -1.344802655118419300, 1.220614474678271000, -0.2575388198975657700 ) ) ;
#154 = CIRCLE ( 'NONE', #146, 0.4921259842519685200 ) ;
#155 = DIRECTION ( 'NONE',  ( 0.0000000000000000000, 0.0000000000000000000, -1.000000000000000000 ) ) ;
#156 = CARTESIAN_POINT ( 'NONE',  ( -1.351762367519993900, 1.220614474678271000, -0.4867995799369360100 ) ) ;
#157 = APPROVAL_DATE_TIME ( #221, #214 ) ;
#158 = DIRECTION ( 'NONE',  ( 1.000000000000000000, 0.0000000000000000000, 0.0000000000000000000 ) ) ;
#159 = ADVANCED_BREP_SHAPE_REPRESENTATION ( '+25mm High Energy Laser Line Polarizer_86716', ( #124, #225 ), #115 ) ;
#160 = CARTESIAN_POINT ( 'NONE',  ( -0.3675103990160568700, 1.220614474678271000, -0.2575388198975657700 ) ) ;
#161 = DATE_AND_TIME ( #242, #217 ) ;
#162 = APPROVAL_ROLE ( '' ) ;
#163 = DIRECTION ( 'NONE',  ( 1.000000000000000000, 0.0000000000000000000, 0.0000000000000000000 ) ) ;
#164 = PERSON_AND_ORGANIZATION ( #45, #108 ) ;
#165 = DIRECTION ( 'NONE',  ( 0.0000000000000000000, 0.0000000000000000000, 1.000000000000000000 ) ) ;
#166 = ORIENTED_EDGE ( 'NONE', *, *, #118, .F. ) ;
#167 = CC_DESIGN_APPROVAL ( #151, ( #120 ) ) ;
#168 = ORIENTED_EDGE ( 'NONE', *, *, #37, .F. ) ;
#169 = COORDINATED_UNIVERSAL_TIME_OFFSET ( 5, 0, .BEHIND. ) ;
#170 = CYLINDRICAL_SURFACE ( 'NONE', #64, 0.4921259842519684100 ) ;
#171 = FACE_OUTER_BOUND ( 'NONE', #131, .T. ) ;
#172 = AXIS2_PLACEMENT_3D ( 'NONE', #132, #44, #216 ) ;
#173 = ORIENTED_EDGE ( 'NONE', *, *, #118, .T. ) ;
#174 = FACE_OUTER_BOUND ( 'NONE', #63, .T. ) ;
#175 = CARTESIAN_POINT ( 'NONE',  ( -0.8596363832680253800, 1.220614474678271000, -0.2575388198975657700 ) ) ;
#176 = CARTESIAN_POINT ( 'NONE',  ( -0.8596363832680253800, 1.220614474678271000, -0.2575388198975657700 ) ) ;
#177 = LOCAL_TIME ( 9, 1, 14.00000000000000000, #30 ) ;
#178 = DIRECTION ( 'NONE',  ( 1.000000000000000000, 0.0000000000000000000, 0.0000000000000000000 ) ) ;
#179 = VECTOR ( 'NONE', #12, 39.37007874015748100 ) ;
#180 = DIRECTION ( 'NONE',  ( -0.0000000000000000000, -0.0000000000000000000, -1.000000000000000000 ) ) ;
#181 = ORIENTED_EDGE ( 'NONE', *, *, #144, .T. ) ;
#182 = CARTESIAN_POINT ( 'NONE',  ( -0.3675103990160568700, 1.220614474678271000, -0.4867995799369360100 ) ) ;
#183 = CC_DESIGN_SECURITY_CLASSIFICATION ( #120, ( #245 ) ) ;
#184 = CARTESIAN_POINT ( 'NONE',  ( 0.0000000000000000000, 0.0000000000000000000, 0.0000000000000000000 ) ) ;
#185 = ADVANCED_FACE ( 'NONE', ( #122 ), #95, .T. ) ;
#186 = APPROVAL_STATUS ( 'not_yet_approved' ) ;
#187 = APPLICATION_PROTOCOL_DEFINITION ( 'international standard', 'config_control_design', 1994, #14 ) ;
#188 = ORIENTED_EDGE ( 'NONE', *, *, #90, .T. ) ;
#189 = DATE_TIME_ROLE ( 'creation_date' ) ;
#190 = AXIS2_PLACEMENT_3D ( 'NONE', #22, #86, #67 ) ;
#191 = ORIENTED_EDGE ( 'NONE', *, *, #4, .T. ) ;
#192 = AXIS2_PLACEMENT_3D ( 'NONE', #198, #150, #9 ) ;
#193 = ORIENTED_EDGE ( 'NONE', *, *, #84, .F. ) ;
#194 = DATE_AND_TIME ( #54, #107 ) ;
#195 = CALENDAR_DATE ( 2018, 19, 7 ) ;
#196 = CARTESIAN_POINT ( 'NONE',  ( -1.344802655118419300, 1.220614474678271000, -0.2575388198975657700 ) ) ;
#197 = ORIENTED_EDGE ( 'NONE', *, *, #4, .F. ) ;
#198 = CARTESIAN_POINT ( 'NONE',  ( -0.8596363832680253800, 1.220614474678271000, -0.2575388198975657700 ) ) ;
#199 = DIRECTION ( 'NONE',  ( -0.7071067811865440200, 0.0000000000000000000, -0.7071067811865510100 ) ) ;
#200 = ORIENTED_EDGE ( 'NONE', *, *, #90, .F. ) ;
#201 = DIRECTION ( 'NONE',  ( -0.0000000000000000000, -0.0000000000000000000, -1.000000000000000000 ) ) ;
#202 = AXIS2_PLACEMENT_3D ( 'NONE', #133, #268, #49 ) ;
#203 = PERSON_AND_ORGANIZATION ( #45, #108 ) ;
#204 = CARTESIAN_POINT ( 'NONE',  ( -0.8596363832680253800, 1.220614474678271000, -0.4937592923385106800 ) ) ;
#205 = PRODUCT_DEFINITION ( 'UNKNOWN', '', #245, #140 ) ;
#206 = PERSON_AND_ORGANIZATION ( #45, #108 ) ;
#207 = ADVANCED_FACE ( 'NONE', ( #23 ), #2, .T. ) ;
#208 = LINE ( 'NONE', #71, #223 ) ;
#209 = PERSON_AND_ORGANIZATION_ROLE ( 'design_owner' ) ;
#210 = EDGE_LOOP ( 'NONE', ( #102, #256 ) ) ;
#211 = APPROVAL_DATE_TIME ( #161, #277 ) ;
#212 = CC_DESIGN_PERSON_AND_ORGANIZATION_ASSIGNMENT ( #164, #33, ( #205 ) ) ;
#213 = ORIENTED_EDGE ( 'NONE', *, *, #269, .T. ) ;
#214 = APPROVAL ( #15, 'UNSPECIFIED' ) ;
#215 = DIRECTION ( 'NONE',  ( 1.000000000000000000, 0.0000000000000000000, 0.0000000000000000000 ) ) ;
#216 = DIRECTION ( 'NONE',  ( 1.000000000000000000, 0.0000000000000000000, 0.0000000000000000000 ) ) ;
#217 = LOCAL_TIME ( 9, 1, 14.00000000000000000, #228 ) ;
#218 = DIRECTION ( 'NONE',  ( -0.0000000000000000000, -0.0000000000000000000, -1.000000000000000000 ) ) ;
#219 = CARTESIAN_POINT ( 'NONE',  ( -0.8596363832680253800, 1.220614474678271000, -0.2575388198975657700 ) ) ;
#220 = DATE_AND_TIME ( #25, #177 ) ;
#221 = DATE_AND_TIME ( #229, #60 ) ;
#222 = PRODUCT ( 'Ø25mm High Energy Laser Line Polarizer_86716', 'Ø25mm High Energy Laser Line Polarizer_86716', '', ( #36 ) ) ;
#223 = VECTOR ( 'NONE', #250, 39.37007874015748900 ) ;
#224 = CARTESIAN_POINT ( 'NONE',  ( -0.8596363832680253800, 1.220614474678271000, -0.2644985322991403300 ) ) ;
#225 = AXIS2_PLACEMENT_3D ( 'NONE', #184, #165, #163 ) ;
#226 = ORIENTED_EDGE ( 'NONE', *, *, #252, .T. ) ;
#227 = APPROVAL_ROLE ( '' ) ;
#228 = COORDINATED_UNIVERSAL_TIME_OFFSET ( 5, 0, .BEHIND. ) ;
#229 = CALENDAR_DATE ( 2018, 19, 7 ) ;
#230 = DATE_TIME_ROLE ( 'classification_date' ) ;
#231 = FACE_OUTER_BOUND ( 'NONE', #57, .T. ) ;
#232 = EDGE_CURVE ( 'NONE', #143, #35, #154, .T. ) ;
#233 = ORIENTED_EDGE ( 'NONE', *, *, #84, .T. ) ;
#234 = CC_DESIGN_DATE_AND_TIME_ASSIGNMENT ( #72, #189, ( #205 ) ) ;
#235 = ORIENTED_EDGE ( 'NONE', *, *, #101, .F. ) ;
#236 = LINE ( 'NONE', #160, #114 ) ;
#237 = ORIENTED_EDGE ( 'NONE', *, *, #61, .T. ) ;
#238 = PERSON_AND_ORGANIZATION ( #45, #108 ) ;
#239 = EDGE_CURVE ( 'NONE', #119, #135, #31, .T. ) ;
#240 = CARTESIAN_POINT ( 'NONE',  ( -0.8596363832680253800, 1.220614474678271000, -0.4867995799369360100 ) ) ;
#241 = PLANE ( 'NONE',  #81 ) ;
#242 = CALENDAR_DATE ( 2018, 19, 7 ) ;
#243 = CONICAL_SURFACE ( 'NONE', #202, 0.4851662718503939600, 0.7853981633974433900 ) ;
#244 = DIRECTION ( 'NONE',  ( -0.0000000000000000000, -0.0000000000000000000, -1.000000000000000000 ) ) ;
#245 = PRODUCT_DEFINITION_FORMATION_WITH_SPECIFIED_SOURCE ( 'ANY', '', #222, .NOT_KNOWN. ) ;
#246 = COORDINATED_UNIVERSAL_TIME_OFFSET ( 5, 0, .BEHIND. ) ;
#247 = CARTESIAN_POINT ( 'NONE',  ( -0.8596363832680253800, 1.220614474678271000, -0.4867995799369360100 ) ) ;
#248 = CC_DESIGN_APPROVAL ( #277, ( #245 ) ) ;
#249 = ADVANCED_FACE ( 'NONE', ( #174 ), #243, .T. ) ;
#250 = DIRECTION ( 'NONE',  ( -0.7071067811865509000, 8.659560562354974800E-017, 0.7071067811865440200 ) ) ;
#251 = EDGE_LOOP ( 'NONE', ( #1, #226, #193, #3 ) ) ;
#252 = EDGE_CURVE ( 'NONE', #27, #143, #208, .T. ) ;
#253 = EDGE_LOOP ( 'NONE', ( #13, #88, #191, #40 ) ) ;
#254 = APPROVAL_DATE_TIME ( #194, #151 ) ;
#255 = ORIENTED_EDGE ( 'NONE', *, *, #232, .F. ) ;
#256 = ORIENTED_EDGE ( 'NONE', *, *, #123, .T. ) ;
#257 = ORIENTED_EDGE ( 'NONE', *, *, #252, .F. ) ;
#258 = CARTESIAN_POINT ( 'NONE',  ( -0.3744701114176313100, 1.220614474678271000, -0.2575388198975657700 ) ) ;
#259 = LINE ( 'NONE', #196, #127 ) ;
#260 = CC_DESIGN_APPROVAL ( #214, ( #205 ) ) ;
#261 = DIRECTION ( 'NONE',  ( 1.000000000000000000, 0.0000000000000000000, -0.0000000000000000000 ) ) ;
#262 = CARTESIAN_POINT ( 'NONE',  ( -0.8596363832680253800, 1.220614474678271000, -0.2644985322991403300 ) ) ;
#263 = CARTESIAN_POINT ( 'NONE',  ( -0.3675103990160568700, 1.220614474678271000, -0.2644985322991403300 ) ) ;
#264 = PRODUCT_RELATED_PRODUCT_CATEGORY ( 'detail', '', ( #222 ) ) ;
#265 = CARTESIAN_POINT ( 'NONE',  ( -0.8596363832680253800, 1.220614474678271000, -0.2575388198975657700 ) ) ;
#266 = DIRECTION ( 'NONE',  ( -1.000000000000000000, 0.0000000000000000000, 0.0000000000000000000 ) ) ;
#267 = EDGE_CURVE ( 'NONE', #119, #35, #236, .T. ) ;
#268 = DIRECTION ( 'NONE',  ( 0.0000000000000000000, 0.0000000000000000000, -1.000000000000000000 ) ) ;
#269 = EDGE_CURVE ( 'NONE', #276, #35, #62, .T. ) ;
#270 =( CONVERSION_BASED_UNIT ( 'INCH', #58 ) LENGTH_UNIT ( ) NAMED_UNIT ( #79 ) );
#271 = APPROVAL_PERSON_ORGANIZATION ( #203, #151, #272 ) ;
#272 = APPROVAL_ROLE ( '' ) ;
#273 = FACE_OUTER_BOUND ( 'NONE', #98, .T. ) ;
#274 = APPLICATION_CONTEXT ( 'configuration controlled 3d designs of mechanical parts and assemblies' ) ;
#275 = ORIENTED_EDGE ( 'NONE', *, *, #239, .F. ) ;
#276 = VERTEX_POINT ( 'NONE', #142 ) ;
#277 = APPROVAL ( #186, 'UNSPECIFIED' ) ;
#278 = CC_DESIGN_DATE_AND_TIME_ASSIGNMENT ( #220, #230, ( #120 ) ) ;
ENDSEC;
END-ISO-10303-21;
