ISO-10303-21;
HEADER;
FILE_DESCRIPTION (( 'STEP AP203' ),
    '1' );
FILE_NAME ('Web Model 87704.STEP',
    '2017-02-01T16:19:57',
    ( '' ),
    ( '' ),
    'SwSTEP 2.0',
    'SolidWorks 2016',
    '' );
FILE_SCHEMA (( 'CONFIG_CONTROL_DESIGN' ));
ENDSEC;

DATA;
#1 = LOCAL_TIME ( 11, 19, 57.00000000000000000, #5 ) ;
#2 = FACE_OUTER_BOUND ( 'NONE', #102, .T. ) ;
#3 = DATE_TIME_ROLE ( 'classification_date' ) ;
#4 = PERSON_AND_ORGANIZATION ( #99, #26 ) ;
#5 = COORDINATED_UNIVERSAL_TIME_OFFSET ( 5, 0, .BEHIND. ) ;
#6 = EDGE_CURVE ( 'NONE', #40, #60, #36, .T. ) ;
#7 = DATE_AND_TIME ( #35, #115 ) ;
#8 = ORIENTED_EDGE ( 'NONE', *, *, #110, .F. ) ;
#9 = FACE_OUTER_BOUND ( 'NONE', #158, .T. ) ;
#10 = APPLICATION_CONTEXT ( 'configuration controlled 3d designs of mechanical parts and assemblies' ) ;
#11 = CC_DESIGN_DATE_AND_TIME_ASSIGNMENT ( #111, #174, ( #160 ) ) ;
#12 = PERSON_AND_ORGANIZATION ( #99, #26 ) ;
#13 = LOCAL_TIME ( 11, 19, 57.00000000000000000, #65 ) ;
#14 = CC_DESIGN_PERSON_AND_ORGANIZATION_ASSIGNMENT ( #59, #64, ( #81 ) ) ;
#15 = CARTESIAN_POINT ( 'NONE',  ( 10.00000000000000000, 0.0000000000000000000, 0.0000000000000000000 ) ) ;
#16 = AXIS2_PLACEMENT_3D ( 'NONE', #61, #32, #167 ) ;
#17 = ADVANCED_FACE ( 'NONE', ( #91 ), #153, .T. ) ;
#18 = DIRECTION ( 'NONE',  ( 0.0000000000000000000, 0.0000000000000000000, 1.000000000000000000 ) ) ;
#19 = EDGE_LOOP ( 'NONE', ( #45, #22, #98, #120 ) ) ;
#20 = DIRECTION ( 'NONE',  ( -0.0000000000000000000, -0.0000000000000000000, 1.000000000000000000 ) ) ;
#21 = PERSON_AND_ORGANIZATION_ROLE ( 'creator' ) ;
#22 = ORIENTED_EDGE ( 'NONE', *, *, #25, .T. ) ;
#23 = MECHANICAL_CONTEXT ( 'NONE', #119, 'mechanical' ) ;
#24 = DATE_AND_TIME ( #126, #13 ) ;
#25 = EDGE_CURVE ( 'NONE', #132, #92, #46, .T. ) ;
#26 = ORGANIZATION ( 'UNSPECIFIED', 'UNSPECIFIED', '' ) ;
#27 = APPROVAL_STATUS ( 'not_yet_approved' ) ;
#28 = APPROVAL_STATUS ( 'not_yet_approved' ) ;
#29 = APPLICATION_PROTOCOL_DEFINITION ( 'international standard', 'config_control_design', 1994, #119 ) ;
#30 = COORDINATED_UNIVERSAL_TIME_OFFSET ( 5, 0, .BEHIND. ) ;
#31 = ORIENTED_EDGE ( 'NONE', *, *, #6, .T. ) ;
#32 = DIRECTION ( 'NONE',  ( -0.0000000000000000000, -0.0000000000000000000, 1.000000000000000000 ) ) ;
#33 = ADVANCED_FACE ( 'NONE', ( #157 ), #76, .F. ) ;
#34 = CARTESIAN_POINT ( 'NONE',  ( 0.0000000000000000000, 0.0000000000000000000, -2.000000000000000000 ) ) ;
#35 = CALENDAR_DATE ( 2017, 1, 2 ) ;
#36 = CIRCLE ( 'NONE', #105, 10.00000000000000000 ) ;
#37 = COORDINATED_UNIVERSAL_TIME_OFFSET ( 5, 0, .BEHIND. ) ;
#38 = EDGE_CURVE ( 'NONE', #92, #132, #51, .T. ) ;
#39 = LOCAL_TIME ( 11, 19, 57.00000000000000000, #30 ) ;
#40 = VERTEX_POINT ( 'NONE', #123 ) ;
#41 = VECTOR ( 'NONE', #164, 1000.000000000000000 ) ;
#42 = DIRECTION ( 'NONE',  ( -0.0000000000000000000, -0.0000000000000000000, 1.000000000000000000 ) ) ;
#43 =( NAMED_UNIT ( * ) SI_UNIT ( $, .STERADIAN. ) SOLID_ANGLE_UNIT ( ) );
#44 = PERSON_AND_ORGANIZATION ( #99, #26 ) ;
#45 = ORIENTED_EDGE ( 'NONE', *, *, #127, .F. ) ;
#46 = CIRCLE ( 'NONE', #48, 10.00000000000000000 ) ;
#47 = CARTESIAN_POINT ( 'NONE',  ( 0.0000000000000000000, 0.0000000000000000000, 0.0000000000000000000 ) ) ;
#48 = AXIS2_PLACEMENT_3D ( 'NONE', #95, #20, #109 ) ;
#49 = SECURITY_CLASSIFICATION ( '', '', #140 ) ;
#50 = APPROVAL_DATE_TIME ( #101, #57 ) ;
#51 = CIRCLE ( 'NONE', #56, 10.00000000000000000 ) ;
#52 = UNCERTAINTY_MEASURE_WITH_UNIT (LENGTH_MEASURE( 1.000000000000000100E-005 ), #53, 'distance_accuracy_value', 'NONE');
#53 =( LENGTH_UNIT ( ) NAMED_UNIT ( * ) SI_UNIT ( .MILLI., .METRE. ) );
#54 = APPROVAL_PERSON_ORGANIZATION ( #103, #57, #62 ) ;
#55 = EDGE_LOOP ( 'NONE', ( #136, #175 ) ) ;
#56 = AXIS2_PLACEMENT_3D ( 'NONE', #93, #79, #107 ) ;
#57 = APPROVAL ( #108, 'UNSPECIFIED' ) ;
#58 = CC_DESIGN_PERSON_AND_ORGANIZATION_ASSIGNMENT ( #4, #129, ( #49 ) ) ;
#59 = PERSON_AND_ORGANIZATION ( #99, #26 ) ;
#60 = VERTEX_POINT ( 'NONE', #170 ) ;
#61 = CARTESIAN_POINT ( 'NONE',  ( 0.0000000000000000000, 0.0000000000000000000, 0.0000000000000000000 ) ) ;
#62 = APPROVAL_ROLE ( '' ) ;
#63 = DIRECTION ( 'NONE',  ( -0.0000000000000000000, -0.0000000000000000000, 1.000000000000000000 ) ) ;
#64 = PERSON_AND_ORGANIZATION_ROLE ( 'creator' ) ;
#65 = COORDINATED_UNIVERSAL_TIME_OFFSET ( 5, 0, .BEHIND. ) ;
#66 = CYLINDRICAL_SURFACE ( 'NONE', #97, 10.00000000000000000 ) ;
#67 =( GEOMETRIC_REPRESENTATION_CONTEXT ( 3 ) GLOBAL_UNCERTAINTY_ASSIGNED_CONTEXT ( ( #52 ) ) GLOBAL_UNIT_ASSIGNED_CONTEXT ( ( #53, #104, #43 ) ) REPRESENTATION_CONTEXT ( 'NONE', 'WORKASPACE' ) );
#68 = AXIS2_PLACEMENT_3D ( 'NONE', #78, #18, #165 ) ;
#69 = CARTESIAN_POINT ( 'NONE',  ( -10.00000000000000000, 1.224646799147353300E-015, -2.000000000000000000 ) ) ;
#70 = PRODUCT_DEFINITION_SHAPE ( 'NONE', 'NONE',  #160 ) ;
#71 = APPROVAL_PERSON_ORGANIZATION ( #44, #117, #121 ) ;
#72 = ORIENTED_EDGE ( 'NONE', *, *, #38, .T. ) ;
#73 = APPROVAL_PERSON_ORGANIZATION ( #130, #173, #131 ) ;
#74 = ADVANCED_BREP_SHAPE_REPRESENTATION ( 'Web Model 87704', ( #156, #68 ), #67 ) ;
#75 = APPROVAL_DATE_TIME ( #24, #173 ) ;
#76 = PLANE ( 'NONE',  #80 ) ;
#77 = ADVANCED_FACE ( 'NONE', ( #9 ), #66, .T. ) ;
#78 = CARTESIAN_POINT ( 'NONE',  ( 0.0000000000000000000, 0.0000000000000000000, 0.0000000000000000000 ) ) ;
#79 = DIRECTION ( 'NONE',  ( -0.0000000000000000000, -0.0000000000000000000, 1.000000000000000000 ) ) ;
#80 = AXIS2_PLACEMENT_3D ( 'NONE', #34, #146, #138 ) ;
#81 = PRODUCT_DEFINITION_FORMATION_WITH_SPECIFIED_SOURCE ( 'ANY', '', #149, .NOT_KNOWN. ) ;
#82 = CC_DESIGN_DATE_AND_TIME_ASSIGNMENT ( #7, #3, ( #49 ) ) ;
#83 = LINE ( 'NONE', #15, #41 ) ;
#84 = PLANE ( 'NONE',  #116 ) ;
#85 = CC_DESIGN_SECURITY_CLASSIFICATION ( #49, ( #81 ) ) ;
#86 = CC_DESIGN_PERSON_AND_ORGANIZATION_ASSIGNMENT ( #12, #21, ( #160 ) ) ;
#87 = DIRECTION ( 'NONE',  ( 0.0000000000000000000, 0.0000000000000000000, -1.000000000000000000 ) ) ;
#88 = AXIS2_PLACEMENT_3D ( 'NONE', #118, #133, #166 ) ;
#89 = CC_DESIGN_APPROVAL ( #57, ( #160 ) ) ;
#90 = COORDINATED_UNIVERSAL_TIME_OFFSET ( 5, 0, .BEHIND. ) ;
#91 = FACE_OUTER_BOUND ( 'NONE', #19, .T. ) ;
#92 = VERTEX_POINT ( 'NONE', #125 ) ;
#93 = CARTESIAN_POINT ( 'NONE',  ( 0.0000000000000000000, 0.0000000000000000000, -2.000000000000000000 ) ) ;
#94 = CC_DESIGN_APPROVAL ( #173, ( #81 ) ) ;
#95 = CARTESIAN_POINT ( 'NONE',  ( 0.0000000000000000000, 0.0000000000000000000, -2.000000000000000000 ) ) ;
#96 = PERSON_AND_ORGANIZATION ( #99, #26 ) ;
#97 = AXIS2_PLACEMENT_3D ( 'NONE', #47, #63, #154 ) ;
#98 = ORIENTED_EDGE ( 'NONE', *, *, #100, .T. ) ;
#99 = PERSON ( 'UNSPECIFIED', 'UNSPECIFIED', 'UNSPECIFIED', ('UNSPECIFIED'), ('UNSPECIFIED'), ('UNSPECIFIED') ) ;
#100 = EDGE_CURVE ( 'NONE', #92, #60, #83, .T. ) ;
#101 = DATE_AND_TIME ( #139, #134 ) ;
#102 = EDGE_LOOP ( 'NONE', ( #114, #31 ) ) ;
#103 = PERSON_AND_ORGANIZATION ( #99, #26 ) ;
#104 =( NAMED_UNIT ( * ) PLANE_ANGLE_UNIT ( ) SI_UNIT ( $, .RADIAN. ) );
#105 = AXIS2_PLACEMENT_3D ( 'NONE', #137, #124, #144 ) ;
#106 = CLOSED_SHELL ( 'NONE', ( #77, #168, #17, #33 ) ) ;
#107 = DIRECTION ( 'NONE',  ( 1.000000000000000000, 0.0000000000000000000, 0.0000000000000000000 ) ) ;
#108 = APPROVAL_STATUS ( 'not_yet_approved' ) ;
#109 = DIRECTION ( 'NONE',  ( 1.000000000000000000, 0.0000000000000000000, 0.0000000000000000000 ) ) ;
#110 = EDGE_CURVE ( 'NONE', #60, #40, #122, .T. ) ;
#111 = DATE_AND_TIME ( #145, #1 ) ;
#112 = DIRECTION ( 'NONE',  ( -1.000000000000000000, 0.0000000000000000000, -0.0000000000000000000 ) ) ;
#113 = SHAPE_DEFINITION_REPRESENTATION ( #70, #74 ) ;
#114 = ORIENTED_EDGE ( 'NONE', *, *, #110, .T. ) ;
#115 = LOCAL_TIME ( 11, 19, 57.00000000000000000, #90 ) ;
#116 = AXIS2_PLACEMENT_3D ( 'NONE', #150, #87, #112 ) ;
#117 = APPROVAL ( #28, 'UNSPECIFIED' ) ;
#118 = CARTESIAN_POINT ( 'NONE',  ( 0.0000000000000000000, 0.0000000000000000000, 0.0000000000000000000 ) ) ;
#119 = APPLICATION_CONTEXT ( 'configuration controlled 3d designs of mechanical parts and assemblies' ) ;
#120 = ORIENTED_EDGE ( 'NONE', *, *, #6, .F. ) ;
#121 = APPROVAL_ROLE ( '' ) ;
#122 = CIRCLE ( 'NONE', #88, 10.00000000000000000 ) ;
#123 = CARTESIAN_POINT ( 'NONE',  ( -10.00000000000000000, 1.224646799147353300E-015, 0.0000000000000000000 ) ) ;
#124 = DIRECTION ( 'NONE',  ( -0.0000000000000000000, -0.0000000000000000000, 1.000000000000000000 ) ) ;
#125 = CARTESIAN_POINT ( 'NONE',  ( 10.00000000000000000, 0.0000000000000000000, -2.000000000000000000 ) ) ;
#126 = CALENDAR_DATE ( 2017, 1, 2 ) ;
#127 = EDGE_CURVE ( 'NONE', #132, #40, #162, .T. ) ;
#128 = PRODUCT_RELATED_PRODUCT_CATEGORY ( 'detail', '', ( #149 ) ) ;
#129 = PERSON_AND_ORGANIZATION_ROLE ( 'classification_officer' ) ;
#130 = PERSON_AND_ORGANIZATION ( #99, #26 ) ;
#131 = APPROVAL_ROLE ( '' ) ;
#132 = VERTEX_POINT ( 'NONE', #69 ) ;
#133 = DIRECTION ( 'NONE',  ( -0.0000000000000000000, -0.0000000000000000000, 1.000000000000000000 ) ) ;
#134 = LOCAL_TIME ( 11, 19, 57.00000000000000000, #37 ) ;
#135 = VECTOR ( 'NONE', #42, 1000.000000000000000 ) ;
#136 = ORIENTED_EDGE ( 'NONE', *, *, #38, .F. ) ;
#137 = CARTESIAN_POINT ( 'NONE',  ( 0.0000000000000000000, 0.0000000000000000000, 0.0000000000000000000 ) ) ;
#138 = DIRECTION ( 'NONE',  ( 1.000000000000000000, 0.0000000000000000000, 0.0000000000000000000 ) ) ;
#139 = CALENDAR_DATE ( 2017, 1, 2 ) ;
#140 = SECURITY_CLASSIFICATION_LEVEL ( 'unclassified' ) ;
#141 = ORIENTED_EDGE ( 'NONE', *, *, #100, .F. ) ;
#142 = CARTESIAN_POINT ( 'NONE',  ( -10.00000000000000000, 1.224646799147353300E-015, 0.0000000000000000000 ) ) ;
#143 = CALENDAR_DATE ( 2017, 1, 2 ) ;
#144 = DIRECTION ( 'NONE',  ( 1.000000000000000000, 0.0000000000000000000, 0.0000000000000000000 ) ) ;
#145 = CALENDAR_DATE ( 2017, 1, 2 ) ;
#146 = DIRECTION ( 'NONE',  ( 0.0000000000000000000, -0.0000000000000000000, 1.000000000000000000 ) ) ;
#147 = APPROVAL_DATE_TIME ( #151, #117 ) ;
#148 = ORIENTED_EDGE ( 'NONE', *, *, #127, .T. ) ;
#149 = PRODUCT ( 'Web Model 87704', 'Web Model 87704', '', ( #23 ) ) ;
#150 = CARTESIAN_POINT ( 'NONE',  ( 0.0000000000000000000, 0.0000000000000000000, 0.0000000000000000000 ) ) ;
#151 = DATE_AND_TIME ( #143, #39 ) ;
#152 = CC_DESIGN_PERSON_AND_ORGANIZATION_ASSIGNMENT ( #172, #163, ( #149 ) ) ;
#153 = CYLINDRICAL_SURFACE ( 'NONE', #16, 10.00000000000000000 ) ;
#154 = DIRECTION ( 'NONE',  ( 1.000000000000000000, 0.0000000000000000000, 0.0000000000000000000 ) ) ;
#155 = DESIGN_CONTEXT ( 'detailed design', #10, 'design' ) ;
#156 = MANIFOLD_SOLID_BREP ( 'Revolve1', #106 ) ;
#157 = FACE_OUTER_BOUND ( 'NONE', #55, .T. ) ;
#158 = EDGE_LOOP ( 'NONE', ( #72, #148, #8, #141 ) ) ;
#159 = CC_DESIGN_APPROVAL ( #117, ( #49 ) ) ;
#160 = PRODUCT_DEFINITION ( 'UNKNOWN', '', #81, #155 ) ;
#161 = APPLICATION_PROTOCOL_DEFINITION ( 'international standard', 'config_control_design', 1994, #10 ) ;
#162 = LINE ( 'NONE', #142, #135 ) ;
#163 = PERSON_AND_ORGANIZATION_ROLE ( 'design_owner' ) ;
#164 = DIRECTION ( 'NONE',  ( -0.0000000000000000000, -0.0000000000000000000, 1.000000000000000000 ) ) ;
#165 = DIRECTION ( 'NONE',  ( 1.000000000000000000, 0.0000000000000000000, 0.0000000000000000000 ) ) ;
#166 = DIRECTION ( 'NONE',  ( 1.000000000000000000, 0.0000000000000000000, 0.0000000000000000000 ) ) ;
#167 = DIRECTION ( 'NONE',  ( 1.000000000000000000, 0.0000000000000000000, 0.0000000000000000000 ) ) ;
#168 = ADVANCED_FACE ( 'NONE', ( #2 ), #84, .F. ) ;
#169 = PERSON_AND_ORGANIZATION_ROLE ( 'design_supplier' ) ;
#170 = CARTESIAN_POINT ( 'NONE',  ( 10.00000000000000000, 0.0000000000000000000, 0.0000000000000000000 ) ) ;
#171 = CC_DESIGN_PERSON_AND_ORGANIZATION_ASSIGNMENT ( #96, #169, ( #81 ) ) ;
#172 = PERSON_AND_ORGANIZATION ( #99, #26 ) ;
#173 = APPROVAL ( #27, 'UNSPECIFIED' ) ;
#174 = DATE_TIME_ROLE ( 'creation_date' ) ;
#175 = ORIENTED_EDGE ( 'NONE', *, *, #25, .F. ) ;
ENDSEC;
END-ISO-10303-21;
