ISO-10303-21;
HEADER;
FILE_DESCRIPTION (( 'STEP AP203' ),
    '1' );
FILE_NAME ('Web Model 19837_19837.step',
    '2022-01-27T20:31:44',
    ( '' ),
    ( '' ),
    'SwSTEP 2.0',
    'SolidWorks 2021',
    '' );
FILE_SCHEMA (( 'CONFIG_CONTROL_DESIGN' ));
ENDSEC;

DATA;
#1 = SECURITY_CLASSIFICATION_LEVEL ( 'unclassified' ) ;
#2 = VERTEX_POINT ( 'NONE', #15 ) ;
#3 = ORIENTED_EDGE ( 'NONE', *, *, #28, .F. ) ;
#4 = AXIS2_PLACEMENT_3D ( 'NONE', #18, #29, #113 ) ;
#5 = LOCAL_TIME ( 15, 31, 44.00000000000000000, #169 ) ;
#6 = MECHANICAL_CONTEXT ( 'NONE', #152, 'mechanical' ) ;
#7 = APPROVAL_ROLE ( '' ) ;
#8 = CARTESIAN_POINT ( 'NONE',  ( -12.50000000000000000, 0.000000000000000000, 1.000000000000000000 ) ) ;
#9 =( GEOMETRIC_REPRESENTATION_CONTEXT ( 3 ) GLOBAL_UNCERTAINTY_ASSIGNED_CONTEXT ( ( #170 ) ) GLOBAL_UNIT_ASSIGNED_CONTEXT ( ( #64, #114, #99 ) ) REPRESENTATION_CONTEXT ( 'NONE', 'WORKASPACE' ) );
#10 = MANIFOLD_SOLID_BREP ( 'Boss-Extrude1', #116 ) ;
#11 = DIRECTION ( 'NONE',  ( -0.000000000000000000, -0.000000000000000000, -1.000000000000000000 ) ) ;
#12 = APPROVAL_STATUS ( 'not_yet_approved' ) ;
#13 = CARTESIAN_POINT ( 'NONE',  ( 0.000000000000000000, 0.000000000000000000, 1.000000000000000000 ) ) ;
#14 = SHAPE_DEFINITION_REPRESENTATION ( #132, #87 ) ;
#15 = CARTESIAN_POINT ( 'NONE',  ( 12.50000000000000000, 1.530808498934191521E-15, 1.000000000000000000 ) ) ;
#16 = AXIS2_PLACEMENT_3D ( 'NONE', #105, #118, #173 ) ;
#17 = DIRECTION ( 'NONE',  ( -0.000000000000000000, -0.000000000000000000, -1.000000000000000000 ) ) ;
#18 = CARTESIAN_POINT ( 'NONE',  ( 0.000000000000000000, 0.000000000000000000, 1.000000000000000000 ) ) ;
#19 = DIRECTION ( 'NONE',  ( 0.000000000000000000, 0.000000000000000000, 1.000000000000000000 ) ) ;
#20 = LINE ( 'NONE', #124, #62 ) ;
#21 = CC_DESIGN_PERSON_AND_ORGANIZATION_ASSIGNMENT ( #65, #23, ( #58 ) ) ;
#22 = EDGE_CURVE ( 'NONE', #94, #148, #85, .T. ) ;
#23 = PERSON_AND_ORGANIZATION_ROLE ( 'classification_officer' ) ;
#24 = PERSON_AND_ORGANIZATION_ROLE ( 'creator' ) ;
#25 = FACE_OUTER_BOUND ( 'NONE', #40, .T. ) ;
#26 = ORIENTED_EDGE ( 'NONE', *, *, #165, .T. ) ;
#27 = LOCAL_TIME ( 15, 31, 44.00000000000000000, #78 ) ;
#28 = EDGE_CURVE ( 'NONE', #2, #94, #141, .T. ) ;
#29 = DIRECTION ( 'NONE',  ( 0.000000000000000000, 0.000000000000000000, 1.000000000000000000 ) ) ;
#30 = DIRECTION ( 'NONE',  ( 1.000000000000000000, 0.000000000000000000, -0.000000000000000000 ) ) ;
#31 = CIRCLE ( 'NONE', #130, 12.50000000000000000 ) ;
#32 = PRODUCT_DEFINITION_FORMATION_WITH_SPECIFIED_SOURCE ( 'ANY', '', #175, .NOT_KNOWN. ) ;
#33 = FACE_OUTER_BOUND ( 'NONE', #135, .T. ) ;
#34 = APPROVAL ( #73, 'UNSPECIFIED' ) ;
#35 = PERSON ( 'UNSPECIFIED', 'UNSPECIFIED', 'UNSPECIFIED', ('UNSPECIFIED'), ('UNSPECIFIED'), ('UNSPECIFIED') ) ;
#36 = DATE_AND_TIME ( #146, #27 ) ;
#37 = CARTESIAN_POINT ( 'NONE',  ( 0.000000000000000000, 0.000000000000000000, 0.000000000000000000 ) ) ;
#38 = PERSON_AND_ORGANIZATION ( #35, #70 ) ;
#39 = EDGE_LOOP ( 'NONE', ( #106, #158 ) ) ;
#40 = EDGE_LOOP ( 'NONE', ( #3, #42, #56, #71 ) ) ;
#41 = LOCAL_TIME ( 15, 31, 44.00000000000000000, #110 ) ;
#42 = ORIENTED_EDGE ( 'NONE', *, *, #156, .T. ) ;
#43 = PERSON_AND_ORGANIZATION_ROLE ( 'design_owner' ) ;
#44 = DIRECTION ( 'NONE',  ( -1.000000000000000000, 0.000000000000000000, 0.000000000000000000 ) ) ;
#45 = PERSON_AND_ORGANIZATION ( #35, #70 ) ;
#46 = CC_DESIGN_PERSON_AND_ORGANIZATION_ASSIGNMENT ( #86, #43, ( #175 ) ) ;
#47 = CC_DESIGN_APPROVAL ( #55, ( #32 ) ) ;
#48 = FACE_OUTER_BOUND ( 'NONE', #39, .T. ) ;
#49 = APPROVAL ( #119, 'UNSPECIFIED' ) ;
#50 = PERSON_AND_ORGANIZATION ( #35, #70 ) ;
#51 = CIRCLE ( 'NONE', #4, 12.50000000000000000 ) ;
#52 = DATE_TIME_ROLE ( 'creation_date' ) ;
#53 = APPROVAL_DATE_TIME ( #121, #55 ) ;
#54 = DIRECTION ( 'NONE',  ( -1.000000000000000000, 0.000000000000000000, 0.000000000000000000 ) ) ;
#55 = APPROVAL ( #12, 'UNSPECIFIED' ) ;
#56 = ORIENTED_EDGE ( 'NONE', *, *, #90, .T. ) ;
#57 = AXIS2_PLACEMENT_3D ( 'NONE', #163, #162, #77 ) ;
#58 = SECURITY_CLASSIFICATION ( '', '', #1 ) ;
#59 = CARTESIAN_POINT ( 'NONE',  ( 12.50000000000000000, 1.530808498934191521E-15, 0.000000000000000000 ) ) ;
#60 = CALENDAR_DATE ( 2022, 27, 1 ) ;
#61 = DATE_AND_TIME ( #60, #41 ) ;
#62 = VECTOR ( 'NONE', #11, 1000.000000000000000 ) ;
#63 = DIRECTION ( 'NONE',  ( -0.000000000000000000, -0.000000000000000000, -1.000000000000000000 ) ) ;
#64 =( LENGTH_UNIT ( ) NAMED_UNIT ( * ) SI_UNIT ( .MILLI., .METRE. ) );
#65 = PERSON_AND_ORGANIZATION ( #35, #70 ) ;
#66 = PERSON_AND_ORGANIZATION ( #35, #70 ) ;
#67 = APPROVAL_PERSON_ORGANIZATION ( #168, #49, #107 ) ;
#68 = PRODUCT_DEFINITION ( 'UNKNOWN', '', #32, #81 ) ;
#69 = CALENDAR_DATE ( 2022, 27, 1 ) ;
#70 = ORGANIZATION ( 'UNSPECIFIED', 'UNSPECIFIED', '' ) ;
#71 = ORIENTED_EDGE ( 'NONE', *, *, #22, .F. ) ;
#72 = DIRECTION ( 'NONE',  ( 0.000000000000000000, 0.000000000000000000, 1.000000000000000000 ) ) ;
#73 = APPROVAL_STATUS ( 'not_yet_approved' ) ;
#74 = DIRECTION ( 'NONE',  ( 1.000000000000000000, 0.000000000000000000, 0.000000000000000000 ) ) ;
#75 = CC_DESIGN_PERSON_AND_ORGANIZATION_ASSIGNMENT ( #66, #24, ( #32 ) ) ;
#76 = ADVANCED_FACE ( 'NONE', ( #25 ), #133, .T. ) ;
#77 = DIRECTION ( 'NONE',  ( 1.000000000000000000, 0.000000000000000000, -0.000000000000000000 ) ) ;
#78 = COORDINATED_UNIVERSAL_TIME_OFFSET ( 5, 0, .BEHIND. ) ;
#79 = AXIS2_PLACEMENT_3D ( 'NONE', #151, #149, #109 ) ;
#80 = CC_DESIGN_PERSON_AND_ORGANIZATION_ASSIGNMENT ( #50, #155, ( #32 ) ) ;
#81 = DESIGN_CONTEXT ( 'detailed design', #159, 'design' ) ;
#82 = ORIENTED_EDGE ( 'NONE', *, *, #22, .T. ) ;
#83 = AXIS2_PLACEMENT_3D ( 'NONE', #167, #63, #44 ) ;
#84 = LOCAL_TIME ( 15, 31, 44.00000000000000000, #91 ) ;
#85 = LINE ( 'NONE', #138, #100 ) ;
#86 = PERSON_AND_ORGANIZATION ( #35, #70 ) ;
#87 = ADVANCED_BREP_SHAPE_REPRESENTATION ( 'Web Model 19837_19837', ( #10, #154 ), #9 ) ;
#88 = CYLINDRICAL_SURFACE ( 'NONE', #83, 12.50000000000000000 ) ;
#89 = PLANE ( 'NONE',  #108 ) ;
#90 = EDGE_CURVE ( 'NONE', #136, #148, #31, .T. ) ;
#91 = COORDINATED_UNIVERSAL_TIME_OFFSET ( 5, 0, .BEHIND. ) ;
#92 = ORIENTED_EDGE ( 'NONE', *, *, #143, .T. ) ;
#93 = DIRECTION ( 'NONE',  ( 0.000000000000000000, 0.000000000000000000, 1.000000000000000000 ) ) ;
#94 = VERTEX_POINT ( 'NONE', #8 ) ;
#95 = ADVANCED_FACE ( 'NONE', ( #33 ), #111, .T. ) ;
#96 = APPLICATION_PROTOCOL_DEFINITION ( 'international standard', 'config_control_design', 1994, #159 ) ;
#97 = APPLICATION_PROTOCOL_DEFINITION ( 'international standard', 'config_control_design', 1994, #152 ) ;
#98 = CARTESIAN_POINT ( 'NONE',  ( 0.000000000000000000, 0.000000000000000000, 0.000000000000000000 ) ) ;
#99 =( NAMED_UNIT ( * ) SI_UNIT ( $, .STERADIAN. ) SOLID_ANGLE_UNIT ( ) );
#100 = VECTOR ( 'NONE', #17, 1000.000000000000000 ) ;
#101 = CC_DESIGN_APPROVAL ( #49, ( #58 ) ) ;
#102 = CC_DESIGN_PERSON_AND_ORGANIZATION_ASSIGNMENT ( #45, #140, ( #68 ) ) ;
#103 = APPROVAL_ROLE ( '' ) ;
#104 = APPROVAL_DATE_TIME ( #36, #49 ) ;
#105 = CARTESIAN_POINT ( 'NONE',  ( 0.000000000000000000, 0.000000000000000000, 1.000000000000000000 ) ) ;
#106 = ORIENTED_EDGE ( 'NONE', *, *, #165, .F. ) ;
#107 = APPROVAL_ROLE ( '' ) ;
#108 = AXIS2_PLACEMENT_3D ( 'NONE', #98, #19, #30 ) ;
#109 = DIRECTION ( 'NONE',  ( 1.000000000000000000, 0.000000000000000000, 0.000000000000000000 ) ) ;
#110 = COORDINATED_UNIVERSAL_TIME_OFFSET ( 5, 0, .BEHIND. ) ;
#111 = PLANE ( 'NONE',  #57 ) ;
#112 = APPROVAL_PERSON_ORGANIZATION ( #38, #55, #103 ) ;
#113 = DIRECTION ( 'NONE',  ( 1.000000000000000000, 0.000000000000000000, 0.000000000000000000 ) ) ;
#114 =( NAMED_UNIT ( * ) PLANE_ANGLE_UNIT ( ) SI_UNIT ( $, .RADIAN. ) );
#115 = DATE_AND_TIME ( #69, #5 ) ;
#116 = CLOSED_SHELL ( 'NONE', ( #76, #122, #95, #171 ) ) ;
#117 = CALENDAR_DATE ( 2022, 27, 1 ) ;
#118 = DIRECTION ( 'NONE',  ( 0.000000000000000000, 0.000000000000000000, 1.000000000000000000 ) ) ;
#119 = APPROVAL_STATUS ( 'not_yet_approved' ) ;
#120 = ORIENTED_EDGE ( 'NONE', *, *, #156, .F. ) ;
#121 = DATE_AND_TIME ( #117, #84 ) ;
#122 = ADVANCED_FACE ( 'NONE', ( #127 ), #88, .T. ) ;
#123 = DIRECTION ( 'NONE',  ( 1.000000000000000000, 0.000000000000000000, 0.000000000000000000 ) ) ;
#124 = CARTESIAN_POINT ( 'NONE',  ( 12.50000000000000000, 1.530808498934191521E-15, 1.000000000000000000 ) ) ;
#125 = AXIS2_PLACEMENT_3D ( 'NONE', #13, #174, #54 ) ;
#126 = CARTESIAN_POINT ( 'NONE',  ( -12.50000000000000000, 0.000000000000000000, 0.000000000000000000 ) ) ;
#127 = FACE_OUTER_BOUND ( 'NONE', #161, .T. ) ;
#128 = CC_DESIGN_DATE_AND_TIME_ASSIGNMENT ( #172, #52, ( #68 ) ) ;
#129 = CALENDAR_DATE ( 2022, 27, 1 ) ;
#130 = AXIS2_PLACEMENT_3D ( 'NONE', #37, #93, #74 ) ;
#131 = CC_DESIGN_APPROVAL ( #34, ( #68 ) ) ;
#132 = PRODUCT_DEFINITION_SHAPE ( 'NONE', 'NONE',  #68 ) ;
#133 = CYLINDRICAL_SURFACE ( 'NONE', #125, 12.50000000000000000 ) ;
#134 = DATE_TIME_ROLE ( 'classification_date' ) ;
#135 = EDGE_LOOP ( 'NONE', ( #92, #145 ) ) ;
#136 = VERTEX_POINT ( 'NONE', #59 ) ;
#137 = PRODUCT_RELATED_PRODUCT_CATEGORY ( 'detail', '', ( #175 ) ) ;
#138 = CARTESIAN_POINT ( 'NONE',  ( -12.50000000000000000, 0.000000000000000000, 1.000000000000000000 ) ) ;
#139 = PERSON_AND_ORGANIZATION ( #35, #70 ) ;
#140 = PERSON_AND_ORGANIZATION_ROLE ( 'creator' ) ;
#141 = CIRCLE ( 'NONE', #16, 12.50000000000000000 ) ;
#142 = LOCAL_TIME ( 15, 31, 44.00000000000000000, #157 ) ;
#143 = EDGE_CURVE ( 'NONE', #94, #2, #51, .T. ) ;
#144 = APPROVAL_PERSON_ORGANIZATION ( #139, #34, #7 ) ;
#145 = ORIENTED_EDGE ( 'NONE', *, *, #28, .T. ) ;
#146 = CALENDAR_DATE ( 2022, 27, 1 ) ;
#147 = ORIENTED_EDGE ( 'NONE', *, *, #143, .F. ) ;
#148 = VERTEX_POINT ( 'NONE', #126 ) ;
#149 = DIRECTION ( 'NONE',  ( 0.000000000000000000, 0.000000000000000000, 1.000000000000000000 ) ) ;
#150 = APPROVAL_DATE_TIME ( #61, #34 ) ;
#151 = CARTESIAN_POINT ( 'NONE',  ( 0.000000000000000000, 0.000000000000000000, 0.000000000000000000 ) ) ;
#152 = APPLICATION_CONTEXT ( 'configuration controlled 3d designs of mechanical parts and assemblies' ) ;
#153 = CARTESIAN_POINT ( 'NONE',  ( 0.000000000000000000, 0.000000000000000000, 0.000000000000000000 ) ) ;
#154 = AXIS2_PLACEMENT_3D ( 'NONE', #153, #72, #123 ) ;
#155 = PERSON_AND_ORGANIZATION_ROLE ( 'design_supplier' ) ;
#156 = EDGE_CURVE ( 'NONE', #2, #136, #20, .T. ) ;
#157 = COORDINATED_UNIVERSAL_TIME_OFFSET ( 5, 0, .BEHIND. ) ;
#158 = ORIENTED_EDGE ( 'NONE', *, *, #90, .F. ) ;
#159 = APPLICATION_CONTEXT ( 'configuration controlled 3d designs of mechanical parts and assemblies' ) ;
#160 = CIRCLE ( 'NONE', #79, 12.50000000000000000 ) ;
#161 = EDGE_LOOP ( 'NONE', ( #120, #147, #82, #26 ) ) ;
#162 = DIRECTION ( 'NONE',  ( 0.000000000000000000, 0.000000000000000000, 1.000000000000000000 ) ) ;
#163 = CARTESIAN_POINT ( 'NONE',  ( 0.000000000000000000, 0.000000000000000000, 1.000000000000000000 ) ) ;
#164 = CC_DESIGN_DATE_AND_TIME_ASSIGNMENT ( #115, #134, ( #58 ) ) ;
#165 = EDGE_CURVE ( 'NONE', #148, #136, #160, .T. ) ;
#166 = CC_DESIGN_SECURITY_CLASSIFICATION ( #58, ( #32 ) ) ;
#167 = CARTESIAN_POINT ( 'NONE',  ( 0.000000000000000000, 0.000000000000000000, 1.000000000000000000 ) ) ;
#168 = PERSON_AND_ORGANIZATION ( #35, #70 ) ;
#169 = COORDINATED_UNIVERSAL_TIME_OFFSET ( 5, 0, .BEHIND. ) ;
#170 = UNCERTAINTY_MEASURE_WITH_UNIT (LENGTH_MEASURE( 1.000000000000000082E-05 ), #64, 'distance_accuracy_value', 'NONE');
#171 = ADVANCED_FACE ( 'NONE', ( #48 ), #89, .F. ) ;
#172 = DATE_AND_TIME ( #129, #142 ) ;
#173 = DIRECTION ( 'NONE',  ( 1.000000000000000000, 0.000000000000000000, 0.000000000000000000 ) ) ;
#174 = DIRECTION ( 'NONE',  ( -0.000000000000000000, -0.000000000000000000, -1.000000000000000000 ) ) ;
#175 = PRODUCT ( 'Web Model 19837_19837', 'Web Model 19837_19837', '', ( #6 ) ) ;
ENDSEC;
END-ISO-10303-21;
