ISO-10303-21;
HEADER;
FILE_DESCRIPTION (( 'STEP AP203' ),
    '1' );
FILE_NAME ('20233-E0W.STEP',
    '2009-09-14T20:14:19',
    ( 'Admin' ),
    ( 'Thorlabs, Inc.' ),
    'SwSTEP 2.0',
    'SolidWorks 2007',
    '' );
FILE_SCHEMA (( 'CONFIG_CONTROL_DESIGN' ));
ENDSEC;

DATA;
#1 = ORIENTED_EDGE ( 'NONE', *, *, #11, .F. ) ;
#2 = ADVANCED_FACE ( 'NONE', ( #19 ), #15, .F. ) ;
#3 = EDGE_LOOP ( 'NONE', ( #22, #206, #208 ) ) ;
#4 = EDGE_CURVE ( 'NONE', #205, #226, #26, .T. ) ;
#5 = ORIENTED_EDGE ( 'NONE', *, *, #224, .F. ) ;
#6 = DIRECTION ( 'NONE',  ( 0.0000000000000000000, 1.000000000000000000, 2.308415133144170800E-016 ) ) ;
#7 = DIRECTION ( 'NONE',  ( -1.000000000000000000, 0.0000000000000000000, 0.0000000000000000000 ) ) ;
#8 = CARTESIAN_POINT ( 'NONE',  ( 0.0000000000000000000, 0.0000000000000000000, 242.4729999999999800 ) ) ;
#9 = AXIS2_PLACEMENT_3D ( 'NONE', #8, #7, #6 ) ;
#10 = EDGE_LOOP ( 'NONE', ( #23, #17, #12, #14 ) ) ;
#11 = EDGE_CURVE ( 'NONE', #226, #225, #30, .T. ) ;
#12 = ORIENTED_EDGE ( 'NONE', *, *, #200, .T. ) ;
#13 = ORIENTED_EDGE ( 'NONE', *, *, #4, .T. ) ;
#14 = ORIENTED_EDGE ( 'NONE', *, *, #214, .F. ) ;
#15 = SPHERICAL_SURFACE ( 'NONE', #9, 240.4730000000000100 ) ;
#16 = VERTEX_POINT ( 'NONE', #31 ) ;
#17 = ORIENTED_EDGE ( 'NONE', *, *, #11, .T. ) ;
#18 = EDGE_CURVE ( 'NONE', #16, #195, #39, .T. ) ;
#19 = FACE_OUTER_BOUND ( 'NONE', #3, .T. ) ;
#20 =( GEOMETRIC_REPRESENTATION_CONTEXT ( 3 ) GLOBAL_UNCERTAINTY_ASSIGNED_CONTEXT ( ( #91 ) ) GLOBAL_UNIT_ASSIGNED_CONTEXT ( ( #94, #93, #92 ) ) REPRESENTATION_CONTEXT ( 'NONE', 'WORKASPACE' ) );
#21 = ADVANCED_FACE ( 'NONE', ( #78 ), #64, .T. ) ;
#22 = ORIENTED_EDGE ( 'NONE', *, *, #18, .F. ) ;
#23 = ORIENTED_EDGE ( 'NONE', *, *, #194, .F. ) ;
#24 = DIRECTION ( 'NONE',  ( 1.000000000000000000, -1.224606353822377300E-016, -2.249491082733206400E-032 ) ) ;
#25 = AXIS2_PLACEMENT_3D ( 'NONE', #29, #24, #28 ) ;
#26 = CIRCLE ( 'NONE', #25, 293.0480000000000000 ) ;
#27 = ADVANCED_BREP_SHAPE_REPRESENTATION ( '20233-E0W', ( #220, #119 ), #20 ) ;
#28 = DIRECTION ( 'NONE',  ( 1.224606353822377000E-016, 1.000000000000000000, 0.0000000000000000000 ) ) ;
#29 = CARTESIAN_POINT ( 'NONE',  ( 0.0000000000000000000, 0.0000000000000000000, 291.0480000000000000 ) ) ;
#30 = CIRCLE ( 'NONE', #40, 12.70000000000000100 ) ;
#31 = CARTESIAN_POINT ( 'NONE',  ( 0.0000000000000000000, 5.889695274454570300E-014, 1.999999999999974000 ) ) ;
#32 = DIRECTION ( 'NONE',  ( 0.0000000000000000000, -1.000000000000000000, -1.878145495644180800E-016 ) ) ;
#33 = DIRECTION ( 'NONE',  ( 0.0000000000000000000, -1.836909530733566100E-016, 1.000000000000000000 ) ) ;
#34 = CARTESIAN_POINT ( 'NONE',  ( 0.0000000000000000000, 6.841894386113297700E-016, -1.724676839899133000 ) ) ;
#35 = DIRECTION ( 'NONE',  ( 0.0000000000000000000, 0.0000000000000000000, -1.000000000000000000 ) ) ;
#36 = DIRECTION ( 'NONE',  ( 1.000000000000000000, 0.0000000000000000000, 0.0000000000000000000 ) ) ;
#37 = CARTESIAN_POINT ( 'NONE',  ( 0.0000000000000000000, 0.0000000000000000000, 242.4729999999999800 ) ) ;
#38 = AXIS2_PLACEMENT_3D ( 'NONE', #37, #36, #35 ) ;
#39 = CIRCLE ( 'NONE', #38, 240.4730000000000100 ) ;
#40 = AXIS2_PLACEMENT_3D ( 'NONE', #34, #33, #32 ) ;
#41 = CARTESIAN_POINT ( 'NONE',  ( 0.0000000000000000000, 0.0000000000000000000, 291.0480000000000000 ) ) ;
#42 = AXIS2_PLACEMENT_3D ( 'NONE', #41, #73, #72 ) ;
#43 = DIRECTION ( 'NONE',  ( 0.0000000000000000000, -1.836909530733566100E-016, 1.000000000000000000 ) ) ;
#44 = DIRECTION ( 'NONE',  ( -1.224606353822377300E-016, -1.000000000000000000, 0.0000000000000000000 ) ) ;
#45 = DIRECTION ( 'NONE',  ( -1.000000000000000000, 1.224606353822377300E-016, 2.249491082733206400E-032 ) ) ;
#46 = CARTESIAN_POINT ( 'NONE',  ( 0.0000000000000000000, 0.0000000000000000000, 242.4729999999999800 ) ) ;
#47 = AXIS2_PLACEMENT_3D ( 'NONE', #46, #45, #44 ) ;
#48 = DIRECTION ( 'NONE',  ( 0.0000000000000000000, -1.836909530733566100E-016, 1.000000000000000000 ) ) ;
#49 = CARTESIAN_POINT ( 'NONE',  ( 0.0000000000000000000, -6.164559371864746800E-017, 2.335594065397600200 ) ) ;
#50 = CARTESIAN_POINT ( 'NONE',  ( -1.555250069354408600E-015, -12.69999999999987100, 2.335594065397585100 ) ) ;
#51 = VECTOR ( 'NONE', #43, 1000.000000000000000 ) ;
#52 = CARTESIAN_POINT ( 'NONE',  ( 1.555250069354419300E-015, 12.70000000000000100, 2.000000000000002200 ) ) ;
#53 = DIRECTION ( 'NONE',  ( 0.0000000000000000000, -1.000000000000000000, -1.707404996040164300E-016 ) ) ;
#54 = DIRECTION ( 'NONE',  ( 0.0000000000000000000, -1.000000000000000000, -1.707404996040164300E-016 ) ) ;
#55 = LINE ( 'NONE', #76, #75 ) ;
#56 = SPHERICAL_SURFACE ( 'NONE', #42, 293.0480000000000000 ) ;
#57 = DIRECTION ( 'NONE',  ( 0.0000000000000000000, 0.0000000000000000000, 1.000000000000000000 ) ) ;
#58 = DIRECTION ( 'NONE',  ( -1.000000000000000000, 0.0000000000000000000, 0.0000000000000000000 ) ) ;
#59 = CARTESIAN_POINT ( 'NONE',  ( 0.0000000000000000000, 0.0000000000000000000, 291.0480000000000000 ) ) ;
#60 = DIRECTION ( 'NONE',  ( 0.0000000000000000000, -1.836909530733566100E-016, 1.000000000000000000 ) ) ;
#61 = LINE ( 'NONE', #52, #51 ) ;
#62 = CARTESIAN_POINT ( 'NONE',  ( 0.0000000000000000000, 12.69999999999991200, 2.335594065397587300 ) ) ;
#63 = CARTESIAN_POINT ( 'NONE',  ( 0.0000000000000000000, 0.0000000000000000000, 2.000000000000000000 ) ) ;
#64 = CYLINDRICAL_SURFACE ( 'NONE', #77, 12.70000000000000100 ) ;
#65 = AXIS2_PLACEMENT_3D ( 'NONE', #59, #58, #57 ) ;
#66 = CIRCLE ( 'NONE', #65, 293.0480000000000000 ) ;
#67 = CARTESIAN_POINT ( 'NONE',  ( 0.0000000000000000000, 3.588684427749400300E-014, -2.000000000000001800 ) ) ;
#68 = FACE_OUTER_BOUND ( 'NONE', #202, .T. ) ;
#69 = CIRCLE ( 'NONE', #47, 240.4730000000000100 ) ;
#70 = AXIS2_PLACEMENT_3D ( 'NONE', #49, #60, #54 ) ;
#71 = CIRCLE ( 'NONE', #70, 12.70000000000000100 ) ;
#72 = DIRECTION ( 'NONE',  ( 0.0000000000000000000, -1.000000000000000000, -1.894268216512579300E-016 ) ) ;
#73 = DIRECTION ( 'NONE',  ( 1.000000000000000000, 0.0000000000000000000, 0.0000000000000000000 ) ) ;
#74 = DIRECTION ( 'NONE',  ( 0.0000000000000000000, -1.836909530733566100E-016, 1.000000000000000000 ) ) ;
#75 = VECTOR ( 'NONE', #74, 1000.000000000000000 ) ;
#76 = CARTESIAN_POINT ( 'NONE',  ( 0.0000000000000000000, -12.70000000000000100, 1.999999999999997800 ) ) ;
#77 = AXIS2_PLACEMENT_3D ( 'NONE', #63, #48, #53 ) ;
#78 = FACE_OUTER_BOUND ( 'NONE', #10, .T. ) ;
#79 = DIRECTION ( 'NONE',  ( -1.000000000000000000, 0.0000000000000000000, 0.0000000000000000000 ) ) ;
#80 = CARTESIAN_POINT ( 'NONE',  ( 0.0000000000000000000, 0.0000000000000000000, 291.0480000000000000 ) ) ;
#81 = DIRECTION ( 'NONE',  ( 0.0000000000000000000, -1.000000000000000000, -1.707404996040164300E-016 ) ) ;
#82 = DIRECTION ( 'NONE',  ( 0.0000000000000000000, -1.836909530733566100E-016, 1.000000000000000000 ) ) ;
#83 = CARTESIAN_POINT ( 'NONE',  ( 0.0000000000000000000, -6.164559371864746800E-017, 2.335594065397600200 ) ) ;
#84 = AXIS2_PLACEMENT_3D ( 'NONE', #83, #82, #81 ) ;
#85 = CIRCLE ( 'NONE', #84, 12.70000000000000100 ) ;
#86 = FACE_OUTER_BOUND ( 'NONE', #216, .T. ) ;
#87 = DIRECTION ( 'NONE',  ( 0.0000000000000000000, 1.000000000000000000, 2.308415133144170800E-016 ) ) ;
#88 = AXIS2_PLACEMENT_3D ( 'NONE', #112, #79, #87 ) ;
#89 = SPHERICAL_SURFACE ( 'NONE', #88, 240.4730000000000100 ) ;
#90 = FACE_OUTER_BOUND ( 'NONE', #210, .T. ) ;
#91 = UNCERTAINTY_MEASURE_WITH_UNIT (LENGTH_MEASURE( 1.000000000000000100E-005 ), #94, 'distance_accuracy_value', 'NONE');
#92 =( NAMED_UNIT ( * ) SI_UNIT ( $, .STERADIAN. ) SOLID_ANGLE_UNIT ( ) );
#93 =( NAMED_UNIT ( * ) PLANE_ANGLE_UNIT ( ) SI_UNIT ( $, .RADIAN. ) );
#94 =( LENGTH_UNIT ( ) NAMED_UNIT ( * ) SI_UNIT ( .MILLI., .METRE. ) );
#95 = CARTESIAN_POINT ( 'NONE',  ( 1.555250069354402700E-015, 12.69999999999991800, -1.724676839899103000 ) ) ;
#96 = CARTESIAN_POINT ( 'NONE',  ( 0.0000000000000000000, -12.69999999999986400, -1.724676839899105300 ) ) ;
#97 = DIRECTION ( 'NONE',  ( 0.0000000000000000000, -1.000000000000000000, -1.878145495644180800E-016 ) ) ;
#98 = DIRECTION ( 'NONE',  ( 0.0000000000000000000, -1.836909530733566100E-016, 1.000000000000000000 ) ) ;
#99 = CARTESIAN_POINT ( 'NONE',  ( 0.0000000000000000000, 6.841894386113297700E-016, -1.724676839899133000 ) ) ;
#100 = AXIS2_PLACEMENT_3D ( 'NONE', #99, #98, #97 ) ;
#101 = CIRCLE ( 'NONE', #100, 12.70000000000000100 ) ;
#102 = DIRECTION ( 'NONE',  ( 0.0000000000000000000, -1.000000000000000000, -1.707404996040164300E-016 ) ) ;
#103 = DIRECTION ( 'NONE',  ( 0.0000000000000000000, -1.836909530733566100E-016, 1.000000000000000000 ) ) ;
#104 = CARTESIAN_POINT ( 'NONE',  ( 0.0000000000000000000, 0.0000000000000000000, 2.000000000000000000 ) ) ;
#105 = AXIS2_PLACEMENT_3D ( 'NONE', #104, #103, #102 ) ;
#106 = CYLINDRICAL_SURFACE ( 'NONE', #105, 12.70000000000000100 ) ;
#107 = FACE_OUTER_BOUND ( 'NONE', #222, .T. ) ;
#108 = DIRECTION ( 'NONE',  ( 0.0000000000000000000, -1.000000000000000000, -1.894268216512579300E-016 ) ) ;
#109 = DIRECTION ( 'NONE',  ( 1.000000000000000000, 0.0000000000000000000, 0.0000000000000000000 ) ) ;
#110 = AXIS2_PLACEMENT_3D ( 'NONE', #80, #109, #108 ) ;
#111 = SPHERICAL_SURFACE ( 'NONE', #110, 293.0480000000000000 ) ;
#112 = CARTESIAN_POINT ( 'NONE',  ( 0.0000000000000000000, 0.0000000000000000000, 242.4729999999999800 ) ) ;
#113 = PERSON_AND_ORGANIZATION ( #127, #129 ) ;
#114 = PRODUCT_DEFINITION ( 'UNKNOWN', '', #152, #115 ) ;
#115 = DESIGN_CONTEXT ( 'detailed design', #166, 'design' ) ;
#116 = PERSON_AND_ORGANIZATION ( #127, #129 ) ;
#117 = DIRECTION ( 'NONE',  ( 0.0000000000000000000, 0.0000000000000000000, 1.000000000000000000 ) ) ;
#118 = CARTESIAN_POINT ( 'NONE',  ( 0.0000000000000000000, 0.0000000000000000000, 0.0000000000000000000 ) ) ;
#119 = AXIS2_PLACEMENT_3D ( 'NONE', #118, #117, #193 ) ;
#120 = LOCAL_TIME ( 16, 14, 19.00000000000000000, #121 ) ;
#121 = COORDINATED_UNIVERSAL_TIME_OFFSET ( 5, 0, .BEHIND. ) ;
#122 = APPROVAL_PERSON_ORGANIZATION ( #113, #124, #123 ) ;
#123 = APPROVAL_ROLE ( '' ) ;
#124 = APPROVAL ( #125, 'UNSPECIFIED' ) ;
#125 = APPROVAL_STATUS ( 'not_yet_approved' ) ;
#126 = SHAPE_DEFINITION_REPRESENTATION ( #139, #27 ) ;
#127 = PERSON ( 'UNSPECIFIED', 'UNSPECIFIED', 'UNSPECIFIED', ('UNSPECIFIED'), ('UNSPECIFIED'), ('UNSPECIFIED') ) ;
#128 = PERSON_AND_ORGANIZATION_ROLE ( 'design_owner' ) ;
#129 = ORGANIZATION ( 'UNSPECIFIED', 'UNSPECIFIED', '' ) ;
#130 = CC_DESIGN_APPROVAL ( #124, ( #114 ) ) ;
#131 = APPROVAL_DATE_TIME ( #132, #124 ) ;
#132 = DATE_AND_TIME ( #133, #120 ) ;
#133 = CALENDAR_DATE ( 2009, 14, 9 ) ;
#134 = LOCAL_TIME ( 16, 14, 19.00000000000000000, #135 ) ;
#135 = COORDINATED_UNIVERSAL_TIME_OFFSET ( 5, 0, .BEHIND. ) ;
#136 = CC_DESIGN_PERSON_AND_ORGANIZATION_ASSIGNMENT ( #138, #137, ( #114 ) ) ;
#137 = PERSON_AND_ORGANIZATION_ROLE ( 'creator' ) ;
#138 = PERSON_AND_ORGANIZATION ( #127, #129 ) ;
#139 = PRODUCT_DEFINITION_SHAPE ( 'NONE', 'NONE',  #114 ) ;
#140 = PRODUCT_RELATED_PRODUCT_CATEGORY ( 'detail', '', ( #179 ) ) ;
#141 = CC_DESIGN_SECURITY_CLASSIFICATION ( #157, ( #152 ) ) ;
#142 = CC_DESIGN_APPROVAL ( #150, ( #157 ) ) ;
#143 = APPROVAL_DATE_TIME ( #144, #150 ) ;
#144 = DATE_AND_TIME ( #145, #146 ) ;
#145 = CALENDAR_DATE ( 2009, 14, 9 ) ;
#146 = LOCAL_TIME ( 16, 14, 19.00000000000000000, #147 ) ;
#147 = COORDINATED_UNIVERSAL_TIME_OFFSET ( 5, 0, .BEHIND. ) ;
#148 = APPROVAL_PERSON_ORGANIZATION ( #182, #150, #149 ) ;
#149 = APPROVAL_ROLE ( '' ) ;
#150 = APPROVAL ( #181, 'UNSPECIFIED' ) ;
#151 = PERSON_AND_ORGANIZATION ( #127, #129 ) ;
#152 = PRODUCT_DEFINITION_FORMATION_WITH_SPECIFIED_SOURCE ( 'ANY', '', #179, .NOT_KNOWN. ) ;
#153 = CC_DESIGN_DATE_AND_TIME_ASSIGNMENT ( #155, #154, ( #114 ) ) ;
#154 = DATE_TIME_ROLE ( 'creation_date' ) ;
#155 = DATE_AND_TIME ( #156, #134 ) ;
#156 = CALENDAR_DATE ( 2009, 14, 9 ) ;
#157 = SECURITY_CLASSIFICATION ( '', '', #158 ) ;
#158 = SECURITY_CLASSIFICATION_LEVEL ( 'unclassified' ) ;
#159 = CC_DESIGN_PERSON_AND_ORGANIZATION_ASSIGNMENT ( #161, #160, ( #152 ) ) ;
#160 = PERSON_AND_ORGANIZATION_ROLE ( 'design_supplier' ) ;
#161 = PERSON_AND_ORGANIZATION ( #127, #129 ) ;
#162 = CC_DESIGN_PERSON_AND_ORGANIZATION_ASSIGNMENT ( #164, #163, ( #152 ) ) ;
#163 = PERSON_AND_ORGANIZATION_ROLE ( 'creator' ) ;
#164 = PERSON_AND_ORGANIZATION ( #127, #129 ) ;
#165 = APPLICATION_PROTOCOL_DEFINITION ( 'international standard', 'config_control_design', 1994, #166 ) ;
#166 = APPLICATION_CONTEXT ( 'configuration controlled 3d designs of mechanical parts and assemblies' ) ;
#167 = CC_DESIGN_APPROVAL ( #175, ( #152 ) ) ;
#168 = APPROVAL_DATE_TIME ( #169, #175 ) ;
#169 = DATE_AND_TIME ( #170, #171 ) ;
#170 = CALENDAR_DATE ( 2009, 14, 9 ) ;
#171 = LOCAL_TIME ( 16, 14, 19.00000000000000000, #172 ) ;
#172 = COORDINATED_UNIVERSAL_TIME_OFFSET ( 5, 0, .BEHIND. ) ;
#173 = APPROVAL_PERSON_ORGANIZATION ( #151, #175, #174 ) ;
#174 = APPROVAL_ROLE ( '' ) ;
#175 = APPROVAL ( #176, 'UNSPECIFIED' ) ;
#176 = APPROVAL_STATUS ( 'not_yet_approved' ) ;
#177 = APPLICATION_PROTOCOL_DEFINITION ( 'international standard', 'config_control_design', 1994, #178 ) ;
#178 = APPLICATION_CONTEXT ( 'configuration controlled 3d designs of mechanical parts and assemblies' ) ;
#179 = PRODUCT ( '20233-E0W', '20233-E0W', '', ( #180 ) ) ;
#180 = MECHANICAL_CONTEXT ( 'NONE', #178, 'mechanical' ) ;
#181 = APPROVAL_STATUS ( 'not_yet_approved' ) ;
#182 = PERSON_AND_ORGANIZATION ( #127, #129 ) ;
#183 = CC_DESIGN_DATE_AND_TIME_ASSIGNMENT ( #185, #184, ( #157 ) ) ;
#184 = DATE_TIME_ROLE ( 'classification_date' ) ;
#185 = DATE_AND_TIME ( #186, #187 ) ;
#186 = CALENDAR_DATE ( 2009, 14, 9 ) ;
#187 = LOCAL_TIME ( 16, 14, 19.00000000000000000, #188 ) ;
#188 = COORDINATED_UNIVERSAL_TIME_OFFSET ( 5, 0, .BEHIND. ) ;
#189 = CC_DESIGN_PERSON_AND_ORGANIZATION_ASSIGNMENT ( #191, #190, ( #157 ) ) ;
#190 = PERSON_AND_ORGANIZATION_ROLE ( 'classification_officer' ) ;
#191 = PERSON_AND_ORGANIZATION ( #127, #129 ) ;
#192 = CC_DESIGN_PERSON_AND_ORGANIZATION_ASSIGNMENT ( #116, #128, ( #179 ) ) ;
#193 = DIRECTION ( 'NONE',  ( 1.000000000000000000, 0.0000000000000000000, 0.0000000000000000000 ) ) ;
#194 = EDGE_CURVE ( 'NONE', #226, #195, #61, .T. ) ;
#195 = VERTEX_POINT ( 'NONE', #62 ) ;
#196 = ORIENTED_EDGE ( 'NONE', *, *, #197, .F. ) ;
#197 = EDGE_CURVE ( 'NONE', #198, #195, #71, .T. ) ;
#198 = VERTEX_POINT ( 'NONE', #50 ) ;
#199 = ORIENTED_EDGE ( 'NONE', *, *, #200, .F. ) ;
#200 = EDGE_CURVE ( 'NONE', #225, #198, #55, .T. ) ;
#201 = ADVANCED_FACE ( 'NONE', ( #68 ), #56, .T. ) ;
#202 = EDGE_LOOP ( 'NONE', ( #203, #13, #5 ) ) ;
#203 = ORIENTED_EDGE ( 'NONE', *, *, #204, .F. ) ;
#204 = EDGE_CURVE ( 'NONE', #205, #225, #66, .T. ) ;
#205 = VERTEX_POINT ( 'NONE', #67 ) ;
#206 = ORIENTED_EDGE ( 'NONE', *, *, #207, .T. ) ;
#207 = EDGE_CURVE ( 'NONE', #16, #198, #69, .T. ) ;
#208 = ORIENTED_EDGE ( 'NONE', *, *, #197, .T. ) ;
#209 = ADVANCED_FACE ( 'NONE', ( #90 ), #89, .F. ) ;
#210 = EDGE_LOOP ( 'NONE', ( #211, #212, #213 ) ) ;
#211 = ORIENTED_EDGE ( 'NONE', *, *, #207, .F. ) ;
#212 = ORIENTED_EDGE ( 'NONE', *, *, #18, .T. ) ;
#213 = ORIENTED_EDGE ( 'NONE', *, *, #214, .T. ) ;
#214 = EDGE_CURVE ( 'NONE', #195, #198, #85, .T. ) ;
#215 = ADVANCED_FACE ( 'NONE', ( #86 ), #111, .T. ) ;
#216 = EDGE_LOOP ( 'NONE', ( #217, #218, #1 ) ) ;
#217 = ORIENTED_EDGE ( 'NONE', *, *, #4, .F. ) ;
#218 = ORIENTED_EDGE ( 'NONE', *, *, #204, .T. ) ;
#219 = CLOSED_SHELL ( 'NONE', ( #221, #201, #2, #209, #215, #21 ) ) ;
#220 = MANIFOLD_SOLID_BREP ( 'NONE', #219 ) ;
#221 = ADVANCED_FACE ( 'NONE', ( #107 ), #106, .T. ) ;
#222 = EDGE_LOOP ( 'NONE', ( #223, #227, #196, #199 ) ) ;
#223 = ORIENTED_EDGE ( 'NONE', *, *, #224, .T. ) ;
#224 = EDGE_CURVE ( 'NONE', #225, #226, #101, .T. ) ;
#225 = VERTEX_POINT ( 'NONE', #96 ) ;
#226 = VERTEX_POINT ( 'NONE', #95 ) ;
#227 = ORIENTED_EDGE ( 'NONE', *, *, #194, .T. ) ;
ENDSEC;
END-ISO-10303-21;
