ISO-10303-21;
HEADER;
FILE_DESCRIPTION (( 'STEP AP203' ),
    '1' );
FILE_NAME ('Web Model 20464_20503.step',
    '2022-06-06T20:39:59',
    ( 'WC' ),
    ( 'Windows Central' ),
    'SwSTEP 2.0',
    'SolidWorks 2021',
    '' );
FILE_SCHEMA (( 'CONFIG_CONTROL_DESIGN' ));
ENDSEC;

DATA;
#1 = CARTESIAN_POINT ( 'NONE',  ( 0.000000000000000000, 0.000000000000000000, 1.000000000000000000 ) ) ;
#2 = CARTESIAN_POINT ( 'NONE',  ( 0.000000000000000000, 0.000000000000000000, 1.000000000000000000 ) ) ;
#3 = CARTESIAN_POINT ( 'NONE',  ( -7.500000000000000000, 0.000000000000000000, 1.000000000000000000 ) ) ;
#4 = CARTESIAN_POINT ( 'NONE',  ( 0.000000000000000000, 0.000000000000000000, 0.000000000000000000 ) ) ;
#5 = AXIS2_PLACEMENT_3D ( 'NONE', #83, #162, #40 ) ;
#6 = APPLICATION_PROTOCOL_DEFINITION ( 'international standard', 'config_control_design', 1994, #68 ) ;
#7 = VECTOR ( 'NONE', #101, 1000.000000000000000 ) ;
#8 = PRODUCT_RELATED_PRODUCT_CATEGORY ( 'detail', '', ( #149 ) ) ;
#9 = PERSON_AND_ORGANIZATION ( #159, #122 ) ;
#10 = VERTEX_POINT ( 'NONE', #118 ) ;
#11 = ORIENTED_EDGE ( 'NONE', *, *, #44, .T. ) ;
#12 = APPROVAL_DATE_TIME ( #135, #14 ) ;
#13 = ORIENTED_EDGE ( 'NONE', *, *, #67, .F. ) ;
#14 = APPROVAL ( #72, 'UNSPECIFIED' ) ;
#15 = ORIENTED_EDGE ( 'NONE', *, *, #67, .T. ) ;
#16 = DIRECTION ( 'NONE',  ( 0.000000000000000000, 0.000000000000000000, 1.000000000000000000 ) ) ;
#17 = APPROVAL_DATE_TIME ( #30, #79 ) ;
#18 = CC_DESIGN_SECURITY_CLASSIFICATION ( #119, ( #129 ) ) ;
#19 = APPLICATION_PROTOCOL_DEFINITION ( 'international standard', 'config_control_design', 1994, #81 ) ;
#20 = PRODUCT_DEFINITION_SHAPE ( 'NONE', 'NONE',  #112 ) ;
#21 = AXIS2_PLACEMENT_3D ( 'NONE', #97, #116, #165 ) ;
#22 = VECTOR ( 'NONE', #54, 1000.000000000000000 ) ;
#23 = APPROVAL_DATE_TIME ( #82, #77 ) ;
#24 = ORIENTED_EDGE ( 'NONE', *, *, #94, .T. ) ;
#25 = VERTEX_POINT ( 'NONE', #137 ) ;
#26 = DATE_AND_TIME ( #163, #148 ) ;
#27 = EDGE_LOOP ( 'NONE', ( #11, #74 ) ) ;
#28 = AXIS2_PLACEMENT_3D ( 'NONE', #48, #90, #53 ) ;
#29 = CARTESIAN_POINT ( 'NONE',  ( 7.500000000000000000, 9.184850993605147944E-16, 1.000000000000000000 ) ) ;
#30 = DATE_AND_TIME ( #156, #111 ) ;
#31 = LINE ( 'NONE', #29, #22 ) ;
#32 = AXIS2_PLACEMENT_3D ( 'NONE', #4, #170, #144 ) ;
#33 = ADVANCED_FACE ( 'NONE', ( #41 ), #63, .T. ) ;
#34 = CC_DESIGN_PERSON_AND_ORGANIZATION_ASSIGNMENT ( #175, #61, ( #119 ) ) ;
#35 = APPROVAL_STATUS ( 'not_yet_approved' ) ;
#36 = LOCAL_TIME ( 16, 39, 59.00000000000000000, #45 ) ;
#37 = COORDINATED_UNIVERSAL_TIME_OFFSET ( 5, 0, .BEHIND. ) ;
#38 = FACE_OUTER_BOUND ( 'NONE', #136, .T. ) ;
#39 = PERSON_AND_ORGANIZATION ( #159, #122 ) ;
#40 = DIRECTION ( 'NONE',  ( 1.000000000000000000, 0.000000000000000000, 0.000000000000000000 ) ) ;
#41 = FACE_OUTER_BOUND ( 'NONE', #27, .T. ) ;
#42 = CC_DESIGN_PERSON_AND_ORGANIZATION_ASSIGNMENT ( #147, #131, ( #129 ) ) ;
#43 = FACE_OUTER_BOUND ( 'NONE', #73, .T. ) ;
#44 = EDGE_CURVE ( 'NONE', #60, #76, #127, .T. ) ;
#45 = COORDINATED_UNIVERSAL_TIME_OFFSET ( 5, 0, .BEHIND. ) ;
#46 = DATE_AND_TIME ( #98, #36 ) ;
#47 = APPROVAL_ROLE ( '' ) ;
#48 = CARTESIAN_POINT ( 'NONE',  ( 0.000000000000000000, 0.000000000000000000, 0.000000000000000000 ) ) ;
#49 = EDGE_LOOP ( 'NONE', ( #139, #151, #24, #13 ) ) ;
#50 = AXIS2_PLACEMENT_3D ( 'NONE', #157, #125, #52 ) ;
#51 = CARTESIAN_POINT ( 'NONE',  ( 7.500000000000000000, 9.184850993605147944E-16, 1.000000000000000000 ) ) ;
#52 = DIRECTION ( 'NONE',  ( -1.000000000000000000, 0.000000000000000000, 0.000000000000000000 ) ) ;
#53 = DIRECTION ( 'NONE',  ( 1.000000000000000000, 0.000000000000000000, -0.000000000000000000 ) ) ;
#54 = DIRECTION ( 'NONE',  ( -0.000000000000000000, -0.000000000000000000, -1.000000000000000000 ) ) ;
#55 = AXIS2_PLACEMENT_3D ( 'NONE', #85, #166, #115 ) ;
#56 = CC_DESIGN_APPROVAL ( #14, ( #129 ) ) ;
#57 = CC_DESIGN_PERSON_AND_ORGANIZATION_ASSIGNMENT ( #114, #93, ( #129 ) ) ;
#58 = AXIS2_PLACEMENT_3D ( 'NONE', #2, #160, #164 ) ;
#59 = ORIENTED_EDGE ( 'NONE', *, *, #158, .T. ) ;
#60 = VERTEX_POINT ( 'NONE', #121 ) ;
#61 = PERSON_AND_ORGANIZATION_ROLE ( 'classification_officer' ) ;
#62 = ORIENTED_EDGE ( 'NONE', *, *, #94, .F. ) ;
#63 = PLANE ( 'NONE',  #21 ) ;
#64 = DIRECTION ( 'NONE',  ( 1.000000000000000000, 0.000000000000000000, 0.000000000000000000 ) ) ;
#65 = CARTESIAN_POINT ( 'NONE',  ( 0.000000000000000000, 0.000000000000000000, 0.000000000000000000 ) ) ;
#66 =( NAMED_UNIT ( * ) SI_UNIT ( $, .STERADIAN. ) SOLID_ANGLE_UNIT ( ) );
#67 = EDGE_CURVE ( 'NONE', #60, #10, #86, .T. ) ;
#68 = APPLICATION_CONTEXT ( 'configuration controlled 3d designs of mechanical parts and assemblies' ) ;
#69 = DESIGN_CONTEXT ( 'detailed design', #68, 'design' ) ;
#70 = LOCAL_TIME ( 16, 39, 59.00000000000000000, #37 ) ;
#71 = COORDINATED_UNIVERSAL_TIME_OFFSET ( 5, 0, .BEHIND. ) ;
#72 = APPROVAL_STATUS ( 'not_yet_approved' ) ;
#73 = EDGE_LOOP ( 'NONE', ( #134, #102, #15, #59 ) ) ;
#74 = ORIENTED_EDGE ( 'NONE', *, *, #107, .T. ) ;
#75 = CIRCLE ( 'NONE', #5, 7.500000000000000000 ) ;
#76 = VERTEX_POINT ( 'NONE', #51 ) ;
#77 = APPROVAL ( #35, 'UNSPECIFIED' ) ;
#78 = MECHANICAL_CONTEXT ( 'NONE', #81, 'mechanical' ) ;
#79 = APPROVAL ( #140, 'UNSPECIFIED' ) ;
#80 = PERSON_AND_ORGANIZATION ( #159, #122 ) ;
#81 = APPLICATION_CONTEXT ( 'configuration controlled 3d designs of mechanical parts and assemblies' ) ;
#82 = DATE_AND_TIME ( #150, #108 ) ;
#83 = CARTESIAN_POINT ( 'NONE',  ( 0.000000000000000000, 0.000000000000000000, 1.000000000000000000 ) ) ;
#84 = CC_DESIGN_APPROVAL ( #79, ( #112 ) ) ;
#85 = CARTESIAN_POINT ( 'NONE',  ( 0.000000000000000000, 0.000000000000000000, 0.000000000000000000 ) ) ;
#86 = LINE ( 'NONE', #3, #7 ) ;
#87 = PERSON_AND_ORGANIZATION_ROLE ( 'design_owner' ) ;
#88 = CYLINDRICAL_SURFACE ( 'NONE', #50, 7.500000000000000000 ) ;
#89 = CC_DESIGN_APPROVAL ( #77, ( #119 ) ) ;
#90 = DIRECTION ( 'NONE',  ( 0.000000000000000000, 0.000000000000000000, 1.000000000000000000 ) ) ;
#91 = APPROVAL_PERSON_ORGANIZATION ( #80, #79, #109 ) ;
#92 = DATE_TIME_ROLE ( 'classification_date' ) ;
#93 = PERSON_AND_ORGANIZATION_ROLE ( 'design_supplier' ) ;
#94 = EDGE_CURVE ( 'NONE', #25, #10, #133, .T. ) ;
#95 = COORDINATED_UNIVERSAL_TIME_OFFSET ( 5, 0, .BEHIND. ) ;
#96 = APPROVAL_ROLE ( '' ) ;
#97 = CARTESIAN_POINT ( 'NONE',  ( 0.000000000000000000, 0.000000000000000000, 1.000000000000000000 ) ) ;
#98 = CALENDAR_DATE ( 2022, 6, 6 ) ;
#99 = DIRECTION ( 'NONE',  ( -0.000000000000000000, -0.000000000000000000, -1.000000000000000000 ) ) ;
#100 = APPROVAL_PERSON_ORGANIZATION ( #39, #14, #96 ) ;
#101 = DIRECTION ( 'NONE',  ( -0.000000000000000000, -0.000000000000000000, -1.000000000000000000 ) ) ;
#102 = ORIENTED_EDGE ( 'NONE', *, *, #44, .F. ) ;
#103 = ADVANCED_FACE ( 'NONE', ( #43 ), #132, .T. ) ;
#104 =( LENGTH_UNIT ( ) NAMED_UNIT ( * ) SI_UNIT ( .MILLI., .METRE. ) );
#105 = PERSON_AND_ORGANIZATION ( #159, #122 ) ;
#106 = MANIFOLD_SOLID_BREP ( 'Boss-Extrude1', #171 ) ;
#107 = EDGE_CURVE ( 'NONE', #76, #60, #75, .T. ) ;
#108 = LOCAL_TIME ( 16, 39, 59.00000000000000000, #95 ) ;
#109 = APPROVAL_ROLE ( '' ) ;
#110 = CC_DESIGN_DATE_AND_TIME_ASSIGNMENT ( #46, #92, ( #119 ) ) ;
#111 = LOCAL_TIME ( 16, 39, 59.00000000000000000, #141 ) ;
#112 = PRODUCT_DEFINITION ( 'UNKNOWN', '', #129, #69 ) ;
#113 = ADVANCED_FACE ( 'NONE', ( #38 ), #153, .F. ) ;
#114 = PERSON_AND_ORGANIZATION ( #159, #122 ) ;
#115 = DIRECTION ( 'NONE',  ( 1.000000000000000000, 0.000000000000000000, 0.000000000000000000 ) ) ;
#116 = DIRECTION ( 'NONE',  ( 0.000000000000000000, 0.000000000000000000, 1.000000000000000000 ) ) ;
#117 = DATE_TIME_ROLE ( 'creation_date' ) ;
#118 = CARTESIAN_POINT ( 'NONE',  ( -7.500000000000000000, 0.000000000000000000, 0.000000000000000000 ) ) ;
#119 = SECURITY_CLASSIFICATION ( '', '', #130 ) ;
#120 = ORIENTED_EDGE ( 'NONE', *, *, #158, .F. ) ;
#121 = CARTESIAN_POINT ( 'NONE',  ( -7.500000000000000000, 0.000000000000000000, 1.000000000000000000 ) ) ;
#122 = ORGANIZATION ( 'UNSPECIFIED', 'UNSPECIFIED', '' ) ;
#123 = FACE_OUTER_BOUND ( 'NONE', #49, .T. ) ;
#124 = ADVANCED_FACE ( 'NONE', ( #123 ), #88, .T. ) ;
#125 = DIRECTION ( 'NONE',  ( -0.000000000000000000, -0.000000000000000000, -1.000000000000000000 ) ) ;
#126 = ADVANCED_BREP_SHAPE_REPRESENTATION ( 'Web Model 20464_20503', ( #106, #32 ), #172 ) ;
#127 = CIRCLE ( 'NONE', #58, 7.500000000000000000 ) ;
#128 = EDGE_CURVE ( 'NONE', #76, #25, #31, .T. ) ;
#129 = PRODUCT_DEFINITION_FORMATION_WITH_SPECIFIED_SOURCE ( 'ANY', '', #149, .NOT_KNOWN. ) ;
#130 = SECURITY_CLASSIFICATION_LEVEL ( 'unclassified' ) ;
#131 = PERSON_AND_ORGANIZATION_ROLE ( 'creator' ) ;
#132 = CYLINDRICAL_SURFACE ( 'NONE', #138, 7.500000000000000000 ) ;
#133 = CIRCLE ( 'NONE', #55, 7.500000000000000000 ) ;
#134 = ORIENTED_EDGE ( 'NONE', *, *, #128, .F. ) ;
#135 = DATE_AND_TIME ( #173, #70 ) ;
#136 = EDGE_LOOP ( 'NONE', ( #120, #62 ) ) ;
#137 = CARTESIAN_POINT ( 'NONE',  ( 7.500000000000000000, 9.184850993605147944E-16, 0.000000000000000000 ) ) ;
#138 = AXIS2_PLACEMENT_3D ( 'NONE', #1, #99, #174 ) ;
#139 = ORIENTED_EDGE ( 'NONE', *, *, #107, .F. ) ;
#140 = APPROVAL_STATUS ( 'not_yet_approved' ) ;
#141 = COORDINATED_UNIVERSAL_TIME_OFFSET ( 5, 0, .BEHIND. ) ;
#142 = CIRCLE ( 'NONE', #154, 7.500000000000000000 ) ;
#143 = APPROVAL_PERSON_ORGANIZATION ( #9, #77, #47 ) ;
#144 = DIRECTION ( 'NONE',  ( 1.000000000000000000, 0.000000000000000000, 0.000000000000000000 ) ) ;
#145 = UNCERTAINTY_MEASURE_WITH_UNIT (LENGTH_MEASURE( 1.000000000000000082E-05 ), #104, 'distance_accuracy_value', 'NONE');
#146 = CC_DESIGN_PERSON_AND_ORGANIZATION_ASSIGNMENT ( #155, #87, ( #149 ) ) ;
#147 = PERSON_AND_ORGANIZATION ( #159, #122 ) ;
#148 = LOCAL_TIME ( 16, 39, 59.00000000000000000, #71 ) ;
#149 = PRODUCT ( 'Web Model 20464_20503', 'Web Model 20464_20503', '', ( #78 ) ) ;
#150 = CALENDAR_DATE ( 2022, 6, 6 ) ;
#151 = ORIENTED_EDGE ( 'NONE', *, *, #128, .T. ) ;
#152 = CC_DESIGN_PERSON_AND_ORGANIZATION_ASSIGNMENT ( #105, #168, ( #112 ) ) ;
#153 = PLANE ( 'NONE',  #28 ) ;
#154 = AXIS2_PLACEMENT_3D ( 'NONE', #65, #16, #64 ) ;
#155 = PERSON_AND_ORGANIZATION ( #159, #122 ) ;
#156 = CALENDAR_DATE ( 2022, 6, 6 ) ;
#157 = CARTESIAN_POINT ( 'NONE',  ( 0.000000000000000000, 0.000000000000000000, 1.000000000000000000 ) ) ;
#158 = EDGE_CURVE ( 'NONE', #10, #25, #142, .T. ) ;
#159 = PERSON ( 'UNSPECIFIED', 'UNSPECIFIED', 'UNSPECIFIED', ('UNSPECIFIED'), ('UNSPECIFIED'), ('UNSPECIFIED') ) ;
#160 = DIRECTION ( 'NONE',  ( 0.000000000000000000, 0.000000000000000000, 1.000000000000000000 ) ) ;
#161 = SHAPE_DEFINITION_REPRESENTATION ( #20, #126 ) ;
#162 = DIRECTION ( 'NONE',  ( 0.000000000000000000, 0.000000000000000000, 1.000000000000000000 ) ) ;
#163 = CALENDAR_DATE ( 2022, 6, 6 ) ;
#164 = DIRECTION ( 'NONE',  ( 1.000000000000000000, 0.000000000000000000, 0.000000000000000000 ) ) ;
#165 = DIRECTION ( 'NONE',  ( 1.000000000000000000, 0.000000000000000000, -0.000000000000000000 ) ) ;
#166 = DIRECTION ( 'NONE',  ( 0.000000000000000000, 0.000000000000000000, 1.000000000000000000 ) ) ;
#167 =( NAMED_UNIT ( * ) PLANE_ANGLE_UNIT ( ) SI_UNIT ( $, .RADIAN. ) );
#168 = PERSON_AND_ORGANIZATION_ROLE ( 'creator' ) ;
#169 = CC_DESIGN_DATE_AND_TIME_ASSIGNMENT ( #26, #117, ( #112 ) ) ;
#170 = DIRECTION ( 'NONE',  ( 0.000000000000000000, 0.000000000000000000, 1.000000000000000000 ) ) ;
#171 = CLOSED_SHELL ( 'NONE', ( #124, #103, #33, #113 ) ) ;
#172 =( GEOMETRIC_REPRESENTATION_CONTEXT ( 3 ) GLOBAL_UNCERTAINTY_ASSIGNED_CONTEXT ( ( #145 ) ) GLOBAL_UNIT_ASSIGNED_CONTEXT ( ( #104, #167, #66 ) ) REPRESENTATION_CONTEXT ( 'NONE', 'WORKASPACE' ) );
#173 = CALENDAR_DATE ( 2022, 6, 6 ) ;
#174 = DIRECTION ( 'NONE',  ( -1.000000000000000000, 0.000000000000000000, 0.000000000000000000 ) ) ;
#175 = PERSON_AND_ORGANIZATION ( #159, #122 ) ;
ENDSEC;
END-ISO-10303-21;
