ISO-10303-21;
HEADER;
FILE_DESCRIPTION (( 'STEP AP203' ),
    '1' );
FILE_NAME ('Web Model 43365_20838.step',
    '2022-03-15T15:21:11',
    ( '' ),
    ( '' ),
    'SwSTEP 2.0',
    'SolidWorks 2021',
    '' );
FILE_SCHEMA (( 'CONFIG_CONTROL_DESIGN' ));
ENDSEC;

DATA;
#1 = APPROVAL ( #116, 'UNSPECIFIED' ) ;
#2 = DIRECTION ( 'NONE',  ( 0.000000000000000000, 0.000000000000000000, 1.000000000000000000 ) ) ;
#3 =( NAMED_UNIT ( * ) SI_UNIT ( $, .STERADIAN. ) SOLID_ANGLE_UNIT ( ) );
#4 = APPROVAL_STATUS ( 'not_yet_approved' ) ;
#5 = APPROVAL ( #4, 'UNSPECIFIED' ) ;
#6 = PERSON_AND_ORGANIZATION_ROLE ( 'design_owner' ) ;
#7 = PERSON_AND_ORGANIZATION ( #35, #72 ) ;
#8 = CC_DESIGN_APPROVAL ( #115, ( #37 ) ) ;
#9 = ORIENTED_EDGE ( 'NONE', *, *, #134, .T. ) ;
#10 =( GEOMETRIC_REPRESENTATION_CONTEXT ( 3 ) GLOBAL_UNCERTAINTY_ASSIGNED_CONTEXT ( ( #103 ) ) GLOBAL_UNIT_ASSIGNED_CONTEXT ( ( #39, #62, #3 ) ) REPRESENTATION_CONTEXT ( 'NONE', 'WORKASPACE' ) );
#11 = DIRECTION ( 'NONE',  ( -0.000000000000000000, -0.000000000000000000, -1.000000000000000000 ) ) ;
#12 = CARTESIAN_POINT ( 'NONE',  ( 0.000000000000000000, 0.000000000000000000, 0.5000000000000000000 ) ) ;
#13 = DIRECTION ( 'NONE',  ( 1.000000000000000000, 0.000000000000000000, 0.000000000000000000 ) ) ;
#14 = CC_DESIGN_PERSON_AND_ORGANIZATION_ASSIGNMENT ( #142, #165, ( #37 ) ) ;
#15 = DIRECTION ( 'NONE',  ( 0.000000000000000000, 0.000000000000000000, 1.000000000000000000 ) ) ;
#16 = CALENDAR_DATE ( 2022, 15, 3 ) ;
#17 = CC_DESIGN_APPROVAL ( #5, ( #27 ) ) ;
#18 = CC_DESIGN_PERSON_AND_ORGANIZATION_ASSIGNMENT ( #60, #75, ( #37 ) ) ;
#19 = PERSON_AND_ORGANIZATION ( #35, #72 ) ;
#20 = CALENDAR_DATE ( 2022, 15, 3 ) ;
#21 = DATE_AND_TIME ( #43, #136 ) ;
#22 = CC_DESIGN_APPROVAL ( #1, ( #114 ) ) ;
#23 = DESIGN_CONTEXT ( 'detailed design', #68, 'design' ) ;
#24 = ORIENTED_EDGE ( 'NONE', *, *, #85, .T. ) ;
#25 = CARTESIAN_POINT ( 'NONE',  ( 0.000000000000000000, 0.000000000000000000, 0.5000000000000000000 ) ) ;
#26 = DIRECTION ( 'NONE',  ( 0.000000000000000000, 0.000000000000000000, 1.000000000000000000 ) ) ;
#27 = PRODUCT_DEFINITION ( 'UNKNOWN', '', #37, #23 ) ;
#28 = ORIENTED_EDGE ( 'NONE', *, *, #47, .T. ) ;
#29 = CARTESIAN_POINT ( 'NONE',  ( -2.499999999999999556, 0.000000000000000000, 0.000000000000000000 ) ) ;
#30 = ADVANCED_BREP_SHAPE_REPRESENTATION ( 'Web Model 43365_20838', ( #80, #77 ), #10 ) ;
#31 = DATE_TIME_ROLE ( 'creation_date' ) ;
#32 = APPROVAL_STATUS ( 'not_yet_approved' ) ;
#33 = PERSON_AND_ORGANIZATION_ROLE ( 'creator' ) ;
#34 = CC_DESIGN_DATE_AND_TIME_ASSIGNMENT ( #138, #31, ( #27 ) ) ;
#35 = PERSON ( 'UNSPECIFIED', 'UNSPECIFIED', 'UNSPECIFIED', ('UNSPECIFIED'), ('UNSPECIFIED'), ('UNSPECIFIED') ) ;
#36 = VECTOR ( 'NONE', #148, 1000.000000000000000 ) ;
#37 = PRODUCT_DEFINITION_FORMATION_WITH_SPECIFIED_SOURCE ( 'ANY', '', #131, .NOT_KNOWN. ) ;
#38 = CARTESIAN_POINT ( 'NONE',  ( -2.499999999999999556, 0.000000000000000000, 0.5000000000000000000 ) ) ;
#39 =( LENGTH_UNIT ( ) NAMED_UNIT ( * ) SI_UNIT ( .MILLI., .METRE. ) );
#40 = LINE ( 'NONE', #67, #36 ) ;
#41 = FACE_OUTER_BOUND ( 'NONE', #64, .T. ) ;
#42 = ORIENTED_EDGE ( 'NONE', *, *, #145, .F. ) ;
#43 = CALENDAR_DATE ( 2022, 15, 3 ) ;
#44 = COORDINATED_UNIVERSAL_TIME_OFFSET ( 5, 0, .BEHIND. ) ;
#45 = LOCAL_TIME ( 11, 21, 11.00000000000000000, #98 ) ;
#46 = APPROVAL_DATE_TIME ( #48, #5 ) ;
#47 = EDGE_CURVE ( 'NONE', #149, #92, #40, .T. ) ;
#48 = DATE_AND_TIME ( #113, #169 ) ;
#49 = DATE_AND_TIME ( #168, #45 ) ;
#50 = APPROVAL_PERSON_ORGANIZATION ( #73, #5, #100 ) ;
#51 = CC_DESIGN_DATE_AND_TIME_ASSIGNMENT ( #21, #129, ( #114 ) ) ;
#52 = AXIS2_PLACEMENT_3D ( 'NONE', #12, #2, #82 ) ;
#53 = ORIENTED_EDGE ( 'NONE', *, *, #91, .F. ) ;
#54 = DIRECTION ( 'NONE',  ( -1.000000000000000000, 0.000000000000000000, 0.000000000000000000 ) ) ;
#55 = AXIS2_PLACEMENT_3D ( 'NONE', #25, #108, #175 ) ;
#56 = DIRECTION ( 'NONE',  ( 0.000000000000000000, 0.000000000000000000, 1.000000000000000000 ) ) ;
#57 = CYLINDRICAL_SURFACE ( 'NONE', #55, 2.499999999999999556 ) ;
#58 = DIRECTION ( 'NONE',  ( 0.000000000000000000, 0.000000000000000000, 1.000000000000000000 ) ) ;
#59 = APPLICATION_CONTEXT ( 'configuration controlled 3d designs of mechanical parts and assemblies' ) ;
#60 = PERSON_AND_ORGANIZATION ( #35, #72 ) ;
#61 = SHAPE_DEFINITION_REPRESENTATION ( #95, #30 ) ;
#62 =( NAMED_UNIT ( * ) PLANE_ANGLE_UNIT ( ) SI_UNIT ( $, .RADIAN. ) );
#63 = CIRCLE ( 'NONE', #65, 2.499999999999999556 ) ;
#64 = EDGE_LOOP ( 'NONE', ( #24, #164 ) ) ;
#65 = AXIS2_PLACEMENT_3D ( 'NONE', #70, #58, #107 ) ;
#66 = CARTESIAN_POINT ( 'NONE',  ( 0.000000000000000000, 0.000000000000000000, 0.5000000000000000000 ) ) ;
#67 = CARTESIAN_POINT ( 'NONE',  ( -2.499999999999999556, 0.000000000000000000, 0.5000000000000000000 ) ) ;
#68 = APPLICATION_CONTEXT ( 'configuration controlled 3d designs of mechanical parts and assemblies' ) ;
#69 = FACE_OUTER_BOUND ( 'NONE', #118, .T. ) ;
#70 = CARTESIAN_POINT ( 'NONE',  ( 0.000000000000000000, 0.000000000000000000, 0.000000000000000000 ) ) ;
#71 = APPROVAL_ROLE ( '' ) ;
#72 = ORGANIZATION ( 'UNSPECIFIED', 'UNSPECIFIED', '' ) ;
#73 = PERSON_AND_ORGANIZATION ( #35, #72 ) ;
#74 = APPLICATION_PROTOCOL_DEFINITION ( 'international standard', 'config_control_design', 1994, #68 ) ;
#75 = PERSON_AND_ORGANIZATION_ROLE ( 'creator' ) ;
#76 = PERSON_AND_ORGANIZATION ( #35, #72 ) ;
#77 = AXIS2_PLACEMENT_3D ( 'NONE', #83, #140, #125 ) ;
#78 = CC_DESIGN_PERSON_AND_ORGANIZATION_ASSIGNMENT ( #19, #6, ( #131 ) ) ;
#79 = ORIENTED_EDGE ( 'NONE', *, *, #85, .F. ) ;
#80 = MANIFOLD_SOLID_BREP ( 'Boss-Extrude1', #89 ) ;
#81 = CARTESIAN_POINT ( 'NONE',  ( 0.000000000000000000, 0.000000000000000000, 0.000000000000000000 ) ) ;
#82 = DIRECTION ( 'NONE',  ( 1.000000000000000000, 0.000000000000000000, -0.000000000000000000 ) ) ;
#83 = CARTESIAN_POINT ( 'NONE',  ( 0.000000000000000000, 0.000000000000000000, 0.000000000000000000 ) ) ;
#84 = AXIS2_PLACEMENT_3D ( 'NONE', #81, #110, #163 ) ;
#85 = EDGE_CURVE ( 'NONE', #149, #111, #157, .T. ) ;
#86 = APPROVAL_DATE_TIME ( #112, #115 ) ;
#87 = SECURITY_CLASSIFICATION_LEVEL ( 'unclassified' ) ;
#88 = AXIS2_PLACEMENT_3D ( 'NONE', #66, #119, #54 ) ;
#89 = CLOSED_SHELL ( 'NONE', ( #146, #90, #109, #99 ) ) ;
#90 = ADVANCED_FACE ( 'NONE', ( #69 ), #57, .T. ) ;
#91 = EDGE_CURVE ( 'NONE', #92, #120, #147, .T. ) ;
#92 = VERTEX_POINT ( 'NONE', #29 ) ;
#93 = CARTESIAN_POINT ( 'NONE',  ( 0.000000000000000000, 0.000000000000000000, 0.5000000000000000000 ) ) ;
#94 = CARTESIAN_POINT ( 'NONE',  ( 0.000000000000000000, 0.000000000000000000, 0.000000000000000000 ) ) ;
#95 = PRODUCT_DEFINITION_SHAPE ( 'NONE', 'NONE',  #27 ) ;
#96 = ORIENTED_EDGE ( 'NONE', *, *, #122, .F. ) ;
#97 = EDGE_LOOP ( 'NONE', ( #53, #124 ) ) ;
#98 = COORDINATED_UNIVERSAL_TIME_OFFSET ( 5, 0, .BEHIND. ) ;
#99 = ADVANCED_FACE ( 'NONE', ( #153 ), #152, .F. ) ;
#100 = APPROVAL_ROLE ( '' ) ;
#101 = COORDINATED_UNIVERSAL_TIME_OFFSET ( 5, 0, .BEHIND. ) ;
#102 = APPROVAL_DATE_TIME ( #49, #1 ) ;
#103 = UNCERTAINTY_MEASURE_WITH_UNIT (LENGTH_MEASURE( 1.000000000000000082E-05 ), #39, 'distance_accuracy_value', 'NONE');
#104 = APPROVAL_PERSON_ORGANIZATION ( #7, #1, #166 ) ;
#105 = CARTESIAN_POINT ( 'NONE',  ( 2.499999999999999556, 3.061616997868382648E-16, 0.5000000000000000000 ) ) ;
#106 = AXIS2_PLACEMENT_3D ( 'NONE', #93, #56, #13 ) ;
#107 = DIRECTION ( 'NONE',  ( 1.000000000000000000, 0.000000000000000000, 0.000000000000000000 ) ) ;
#108 = DIRECTION ( 'NONE',  ( -0.000000000000000000, -0.000000000000000000, -1.000000000000000000 ) ) ;
#109 = ADVANCED_FACE ( 'NONE', ( #41 ), #173, .T. ) ;
#110 = DIRECTION ( 'NONE',  ( 0.000000000000000000, 0.000000000000000000, 1.000000000000000000 ) ) ;
#111 = VERTEX_POINT ( 'NONE', #159 ) ;
#112 = DATE_AND_TIME ( #20, #160 ) ;
#113 = CALENDAR_DATE ( 2022, 15, 3 ) ;
#114 = SECURITY_CLASSIFICATION ( '', '', #87 ) ;
#115 = APPROVAL ( #32, 'UNSPECIFIED' ) ;
#116 = APPROVAL_STATUS ( 'not_yet_approved' ) ;
#117 = LOCAL_TIME ( 11, 21, 11.00000000000000000, #101 ) ;
#118 = EDGE_LOOP ( 'NONE', ( #42, #79, #28, #121 ) ) ;
#119 = DIRECTION ( 'NONE',  ( -0.000000000000000000, -0.000000000000000000, -1.000000000000000000 ) ) ;
#120 = VERTEX_POINT ( 'NONE', #137 ) ;
#121 = ORIENTED_EDGE ( 'NONE', *, *, #91, .T. ) ;
#122 = EDGE_CURVE ( 'NONE', #111, #149, #151, .T. ) ;
#123 = EDGE_LOOP ( 'NONE', ( #96, #132, #9, #162 ) ) ;
#124 = ORIENTED_EDGE ( 'NONE', *, *, #134, .F. ) ;
#125 = DIRECTION ( 'NONE',  ( 1.000000000000000000, 0.000000000000000000, 0.000000000000000000 ) ) ;
#126 = MECHANICAL_CONTEXT ( 'NONE', #59, 'mechanical' ) ;
#127 = PERSON_AND_ORGANIZATION_ROLE ( 'classification_officer' ) ;
#128 = CC_DESIGN_PERSON_AND_ORGANIZATION_ASSIGNMENT ( #154, #33, ( #27 ) ) ;
#129 = DATE_TIME_ROLE ( 'classification_date' ) ;
#130 = DIRECTION ( 'NONE',  ( 1.000000000000000000, 0.000000000000000000, 0.000000000000000000 ) ) ;
#131 = PRODUCT ( 'Web Model 43365_20838', 'Web Model 43365_20838', '', ( #126 ) ) ;
#132 = ORIENTED_EDGE ( 'NONE', *, *, #145, .T. ) ;
#133 = FACE_OUTER_BOUND ( 'NONE', #123, .T. ) ;
#134 = EDGE_CURVE ( 'NONE', #120, #92, #63, .T. ) ;
#135 = CYLINDRICAL_SURFACE ( 'NONE', #88, 2.499999999999999556 ) ;
#136 = LOCAL_TIME ( 11, 21, 11.00000000000000000, #144 ) ;
#137 = CARTESIAN_POINT ( 'NONE',  ( 2.499999999999999556, 3.061616997868382648E-16, 0.000000000000000000 ) ) ;
#138 = DATE_AND_TIME ( #16, #117 ) ;
#139 = APPROVAL_PERSON_ORGANIZATION ( #76, #115, #71 ) ;
#140 = DIRECTION ( 'NONE',  ( 0.000000000000000000, 0.000000000000000000, 1.000000000000000000 ) ) ;
#141 = PERSON_AND_ORGANIZATION ( #35, #72 ) ;
#142 = PERSON_AND_ORGANIZATION ( #35, #72 ) ;
#143 = CC_DESIGN_PERSON_AND_ORGANIZATION_ASSIGNMENT ( #141, #127, ( #114 ) ) ;
#144 = COORDINATED_UNIVERSAL_TIME_OFFSET ( 5, 0, .BEHIND. ) ;
#145 = EDGE_CURVE ( 'NONE', #111, #120, #172, .T. ) ;
#146 = ADVANCED_FACE ( 'NONE', ( #133 ), #135, .T. ) ;
#147 = CIRCLE ( 'NONE', #170, 2.499999999999999556 ) ;
#148 = DIRECTION ( 'NONE',  ( -0.000000000000000000, -0.000000000000000000, -1.000000000000000000 ) ) ;
#149 = VERTEX_POINT ( 'NONE', #38 ) ;
#150 = DIRECTION ( 'NONE',  ( 1.000000000000000000, 0.000000000000000000, 0.000000000000000000 ) ) ;
#151 = CIRCLE ( 'NONE', #171, 2.499999999999999556 ) ;
#152 = PLANE ( 'NONE',  #84 ) ;
#153 = FACE_OUTER_BOUND ( 'NONE', #97, .T. ) ;
#154 = PERSON_AND_ORGANIZATION ( #35, #72 ) ;
#155 = COORDINATED_UNIVERSAL_TIME_OFFSET ( 5, 0, .BEHIND. ) ;
#156 = VECTOR ( 'NONE', #11, 1000.000000000000000 ) ;
#157 = CIRCLE ( 'NONE', #106, 2.499999999999999556 ) ;
#158 = CC_DESIGN_SECURITY_CLASSIFICATION ( #114, ( #37 ) ) ;
#159 = CARTESIAN_POINT ( 'NONE',  ( 2.499999999999999556, 3.061616997868382648E-16, 0.5000000000000000000 ) ) ;
#160 = LOCAL_TIME ( 11, 21, 11.00000000000000000, #155 ) ;
#161 = PRODUCT_RELATED_PRODUCT_CATEGORY ( 'detail', '', ( #131 ) ) ;
#162 = ORIENTED_EDGE ( 'NONE', *, *, #47, .F. ) ;
#163 = DIRECTION ( 'NONE',  ( 1.000000000000000000, 0.000000000000000000, -0.000000000000000000 ) ) ;
#164 = ORIENTED_EDGE ( 'NONE', *, *, #122, .T. ) ;
#165 = PERSON_AND_ORGANIZATION_ROLE ( 'design_supplier' ) ;
#166 = APPROVAL_ROLE ( '' ) ;
#167 = APPLICATION_PROTOCOL_DEFINITION ( 'international standard', 'config_control_design', 1994, #59 ) ;
#168 = CALENDAR_DATE ( 2022, 15, 3 ) ;
#169 = LOCAL_TIME ( 11, 21, 11.00000000000000000, #44 ) ;
#170 = AXIS2_PLACEMENT_3D ( 'NONE', #94, #26, #150 ) ;
#171 = AXIS2_PLACEMENT_3D ( 'NONE', #174, #15, #130 ) ;
#172 = LINE ( 'NONE', #105, #156 ) ;
#173 = PLANE ( 'NONE',  #52 ) ;
#174 = CARTESIAN_POINT ( 'NONE',  ( 0.000000000000000000, 0.000000000000000000, 0.5000000000000000000 ) ) ;
#175 = DIRECTION ( 'NONE',  ( -1.000000000000000000, 0.000000000000000000, 0.000000000000000000 ) ) ;
ENDSEC;
END-ISO-10303-21;
