ISO-10303-21;
HEADER;
FILE_DESCRIPTION (( 'STEP AP203' ),
    '1' );
FILE_NAME ('Web Model 15404_15416.step',
    '2022-03-11T18:22:04',
    ( '' ),
    ( '' ),
    'SwSTEP 2.0',
    'SolidWorks 2021',
    '' );
FILE_SCHEMA (( 'CONFIG_CONTROL_DESIGN' ));
ENDSEC;

DATA;
#1 = DIRECTION ( 'NONE',  ( -1.000000000000000000, -0.000000000000000000, -0.000000000000000000 ) ) ;
#2 = CARTESIAN_POINT ( 'NONE',  ( 2.500000000000000000, 3.110602869834276865E-15, -25.39999999999999858 ) ) ;
#3 = DIRECTION ( 'NONE',  ( 0.000000000000000000, 0.000000000000000000, -1.000000000000000000 ) ) ;
#4 = AXIS2_PLACEMENT_3D ( 'NONE', #140, #151, #5 ) ;
#5 = DIRECTION ( 'NONE',  ( 0.000000000000000000, 0.000000000000000000, 1.000000000000000000 ) ) ;
#6 =( LENGTH_UNIT ( ) NAMED_UNIT ( * ) SI_UNIT ( .MILLI., .METRE. ) );
#7 = APPROVAL_STATUS ( 'not_yet_approved' ) ;
#8 = PERSON_AND_ORGANIZATION ( #169, #49 ) ;
#9 = APPROVAL ( #127, 'UNSPECIFIED' ) ;
#10 = PRODUCT ( 'Web Model 15404_15416', 'Web Model 15404_15416', '', ( #97 ) ) ;
#11 = APPROVAL_ROLE ( '' ) ;
#12 = ORIENTED_EDGE ( 'NONE', *, *, #24, .F. ) ;
#13 = DATE_AND_TIME ( #159, #84 ) ;
#14 = CARTESIAN_POINT ( 'NONE',  ( 2.500000000000000000, 0.000000000000000000, 25.39999999999999858 ) ) ;
#15 = CALENDAR_DATE ( 2022, 11, 3 ) ;
#16 = DIRECTION ( 'NONE',  ( 0.000000000000000000, 0.000000000000000000, -1.000000000000000000 ) ) ;
#17 = DIRECTION ( 'NONE',  ( 0.000000000000000000, 0.000000000000000000, 1.000000000000000000 ) ) ;
#18 = ORIENTED_EDGE ( 'NONE', *, *, #138, .T. ) ;
#19 = ORIENTED_EDGE ( 'NONE', *, *, #138, .F. ) ;
#20 = COORDINATED_UNIVERSAL_TIME_OFFSET ( 5, 0, .BEHIND. ) ;
#21 = VECTOR ( 'NONE', #1, 1000.000000000000000 ) ;
#22 = DATE_TIME_ROLE ( 'creation_date' ) ;
#23 = PERSON_AND_ORGANIZATION ( #169, #49 ) ;
#24 = EDGE_CURVE ( 'NONE', #31, #45, #63, .T. ) ;
#25 = PLANE ( 'NONE',  #61 ) ;
#26 = FACE_OUTER_BOUND ( 'NONE', #123, .T. ) ;
#27 = DESIGN_CONTEXT ( 'detailed design', #168, 'design' ) ;
#28 = ORIENTED_EDGE ( 'NONE', *, *, #24, .T. ) ;
#29 = CIRCLE ( 'NONE', #153, 25.39999999999999858 ) ;
#30 = ORIENTED_EDGE ( 'NONE', *, *, #73, .F. ) ;
#31 = VERTEX_POINT ( 'NONE', #2 ) ;
#32 = DIRECTION ( 'NONE',  ( 1.000000000000000000, 0.000000000000000000, 0.000000000000000000 ) ) ;
#33 = APPROVAL ( #7, 'UNSPECIFIED' ) ;
#34 = DIRECTION ( 'NONE',  ( 0.000000000000000000, 0.000000000000000000, -1.000000000000000000 ) ) ;
#35 = APPROVAL_PERSON_ORGANIZATION ( #144, #55, #147 ) ;
#36 = PERSON_AND_ORGANIZATION_ROLE ( 'design_owner' ) ;
#37 =( NAMED_UNIT ( * ) SI_UNIT ( $, .STERADIAN. ) SOLID_ANGLE_UNIT ( ) );
#38 = PERSON_AND_ORGANIZATION_ROLE ( 'creator' ) ;
#39 = LOCAL_TIME ( 13, 22, 4.000000000000000000, #20 ) ;
#40 = AXIS2_PLACEMENT_3D ( 'NONE', #79, #133, #16 ) ;
#41 = ADVANCED_FACE ( 'NONE', ( #54 ), #135, .T. ) ;
#42 = DATE_TIME_ROLE ( 'classification_date' ) ;
#43 = CLOSED_SHELL ( 'NONE', ( #174, #41, #103, #96 ) ) ;
#44 = LINE ( 'NONE', #120, #143 ) ;
#45 = VERTEX_POINT ( 'NONE', #14 ) ;
#46 = ORIENTED_EDGE ( 'NONE', *, *, #98, .F. ) ;
#47 = COORDINATED_UNIVERSAL_TIME_OFFSET ( 5, 0, .BEHIND. ) ;
#48 = ADVANCED_BREP_SHAPE_REPRESENTATION ( 'Web Model 15404_15416', ( #150, #106 ), #141 ) ;
#49 = ORGANIZATION ( 'UNSPECIFIED', 'UNSPECIFIED', '' ) ;
#50 = PRODUCT_DEFINITION_FORMATION_WITH_SPECIFIED_SOURCE ( 'ANY', '', #10, .NOT_KNOWN. ) ;
#51 = PERSON_AND_ORGANIZATION_ROLE ( 'classification_officer' ) ;
#52 = DIRECTION ( 'NONE',  ( 0.000000000000000000, 0.000000000000000000, -1.000000000000000000 ) ) ;
#53 = CARTESIAN_POINT ( 'NONE',  ( -2.500000000000000000, 0.000000000000000000, 0.000000000000000000 ) ) ;
#54 = FACE_OUTER_BOUND ( 'NONE', #137, .T. ) ;
#55 = APPROVAL ( #132, 'UNSPECIFIED' ) ;
#56 = APPROVAL_ROLE ( '' ) ;
#57 = LOCAL_TIME ( 13, 22, 4.000000000000000000, #78 ) ;
#58 = DIRECTION ( 'NONE',  ( 0.000000000000000000, 0.000000000000000000, -1.000000000000000000 ) ) ;
#59 = EDGE_CURVE ( 'NONE', #31, #108, #44, .T. ) ;
#60 = SECURITY_CLASSIFICATION ( '', '', #75 ) ;
#61 = AXIS2_PLACEMENT_3D ( 'NONE', #77, #105, #34 ) ;
#62 = LINE ( 'NONE', #121, #21 ) ;
#63 = CIRCLE ( 'NONE', #40, 25.39999999999999858 ) ;
#64 = DIRECTION ( 'NONE',  ( -1.000000000000000000, -0.000000000000000000, -0.000000000000000000 ) ) ;
#65 = CC_DESIGN_DATE_AND_TIME_ASSIGNMENT ( #13, #42, ( #60 ) ) ;
#66 = DIRECTION ( 'NONE',  ( 1.000000000000000000, 0.000000000000000000, 0.000000000000000000 ) ) ;
#67 = APPROVAL_PERSON_ORGANIZATION ( #101, #33, #56 ) ;
#68 = CARTESIAN_POINT ( 'NONE',  ( -2.500000000000000000, 0.000000000000000000, 25.39999999999999858 ) ) ;
#69 = DIRECTION ( 'NONE',  ( 1.000000000000000000, 0.000000000000000000, 0.000000000000000000 ) ) ;
#70 = APPROVAL_DATE_TIME ( #166, #9 ) ;
#71 = DATE_AND_TIME ( #112, #39 ) ;
#72 = CARTESIAN_POINT ( 'NONE',  ( 0.000000000000000000, 0.000000000000000000, 0.000000000000000000 ) ) ;
#73 = EDGE_CURVE ( 'NONE', #45, #116, #62, .T. ) ;
#74 = AXIS2_PLACEMENT_3D ( 'NONE', #163, #148, #17 ) ;
#75 = SECURITY_CLASSIFICATION_LEVEL ( 'unclassified' ) ;
#76 = PERSON_AND_ORGANIZATION_ROLE ( 'design_supplier' ) ;
#77 = CARTESIAN_POINT ( 'NONE',  ( 2.500000000000000000, 0.000000000000000000, 0.000000000000000000 ) ) ;
#78 = COORDINATED_UNIVERSAL_TIME_OFFSET ( 5, 0, .BEHIND. ) ;
#79 = CARTESIAN_POINT ( 'NONE',  ( 2.500000000000000000, 0.000000000000000000, 0.000000000000000000 ) ) ;
#80 = SHAPE_DEFINITION_REPRESENTATION ( #175, #48 ) ;
#81 = ORIENTED_EDGE ( 'NONE', *, *, #98, .T. ) ;
#82 = ORIENTED_EDGE ( 'NONE', *, *, #73, .T. ) ;
#83 = PERSON_AND_ORGANIZATION_ROLE ( 'creator' ) ;
#84 = LOCAL_TIME ( 13, 22, 4.000000000000000000, #104 ) ;
#85 = PERSON_AND_ORGANIZATION ( #169, #49 ) ;
#86 = CALENDAR_DATE ( 2022, 11, 3 ) ;
#87 = APPLICATION_CONTEXT ( 'configuration controlled 3d designs of mechanical parts and assemblies' ) ;
#88 = CC_DESIGN_PERSON_AND_ORGANIZATION_ASSIGNMENT ( #85, #76, ( #50 ) ) ;
#89 = AXIS2_PLACEMENT_3D ( 'NONE', #165, #69, #152 ) ;
#90 = CYLINDRICAL_SURFACE ( 'NONE', #4, 25.39999999999999858 ) ;
#91 = DIRECTION ( 'NONE',  ( 1.000000000000000000, 0.000000000000000000, 0.000000000000000000 ) ) ;
#92 = CC_DESIGN_APPROVAL ( #9, ( #50 ) ) ;
#93 = ORIENTED_EDGE ( 'NONE', *, *, #59, .T. ) ;
#94 = CARTESIAN_POINT ( 'NONE',  ( -2.500000000000000000, 0.000000000000000000, 0.000000000000000000 ) ) ;
#95 = APPROVAL_DATE_TIME ( #99, #33 ) ;
#96 = ADVANCED_FACE ( 'NONE', ( #26 ), #119, .F. ) ;
#97 = MECHANICAL_CONTEXT ( 'NONE', #87, 'mechanical' ) ;
#98 = EDGE_CURVE ( 'NONE', #108, #116, #29, .T. ) ;
#99 = DATE_AND_TIME ( #86, #109 ) ;
#100 = CC_DESIGN_PERSON_AND_ORGANIZATION_ASSIGNMENT ( #8, #38, ( #50 ) ) ;
#101 = PERSON_AND_ORGANIZATION ( #169, #49 ) ;
#102 = CC_DESIGN_APPROVAL ( #55, ( #60 ) ) ;
#103 = ADVANCED_FACE ( 'NONE', ( #146 ), #25, .T. ) ;
#104 = COORDINATED_UNIVERSAL_TIME_OFFSET ( 5, 0, .BEHIND. ) ;
#105 = DIRECTION ( 'NONE',  ( 1.000000000000000000, 0.000000000000000000, 0.000000000000000000 ) ) ;
#106 = AXIS2_PLACEMENT_3D ( 'NONE', #72, #155, #32 ) ;
#107 = DATE_AND_TIME ( #15, #57 ) ;
#108 = VERTEX_POINT ( 'NONE', #113 ) ;
#109 = LOCAL_TIME ( 13, 22, 4.000000000000000000, #47 ) ;
#110 = ORIENTED_EDGE ( 'NONE', *, *, #59, .F. ) ;
#111 = CALENDAR_DATE ( 2022, 11, 3 ) ;
#112 = CALENDAR_DATE ( 2022, 11, 3 ) ;
#113 = CARTESIAN_POINT ( 'NONE',  ( -2.500000000000000000, 3.110602869834276865E-15, -25.39999999999999858 ) ) ;
#114 = APPLICATION_PROTOCOL_DEFINITION ( 'international standard', 'config_control_design', 1994, #168 ) ;
#115 = AXIS2_PLACEMENT_3D ( 'NONE', #53, #66, #3 ) ;
#116 = VERTEX_POINT ( 'NONE', #68 ) ;
#117 = CC_DESIGN_APPROVAL ( #33, ( #129 ) ) ;
#118 = EDGE_CURVE ( 'NONE', #45, #31, #164, .T. ) ;
#119 = PLANE ( 'NONE',  #115 ) ;
#120 = CARTESIAN_POINT ( 'NONE',  ( 2.500000000000000000, 3.110602869834276865E-15, -25.39999999999999858 ) ) ;
#121 = CARTESIAN_POINT ( 'NONE',  ( 2.500000000000000000, 0.000000000000000000, 25.39999999999999858 ) ) ;
#122 = UNCERTAINTY_MEASURE_WITH_UNIT (LENGTH_MEASURE( 1.000000000000000082E-05 ), #6, 'distance_accuracy_value', 'NONE');
#123 = EDGE_LOOP ( 'NONE', ( #19, #46 ) ) ;
#124 = ORIENTED_EDGE ( 'NONE', *, *, #118, .F. ) ;
#125 = CC_DESIGN_DATE_AND_TIME_ASSIGNMENT ( #71, #22, ( #129 ) ) ;
#126 = PERSON_AND_ORGANIZATION ( #169, #49 ) ;
#127 = APPROVAL_STATUS ( 'not_yet_approved' ) ;
#128 = FACE_OUTER_BOUND ( 'NONE', #139, .T. ) ;
#129 = PRODUCT_DEFINITION ( 'UNKNOWN', '', #50, #27 ) ;
#130 = PERSON_AND_ORGANIZATION ( #169, #49 ) ;
#131 = LOCAL_TIME ( 13, 22, 4.000000000000000000, #156 ) ;
#132 = APPROVAL_STATUS ( 'not_yet_approved' ) ;
#133 = DIRECTION ( 'NONE',  ( 1.000000000000000000, 0.000000000000000000, 0.000000000000000000 ) ) ;
#134 = ORIENTED_EDGE ( 'NONE', *, *, #118, .T. ) ;
#135 = CYLINDRICAL_SURFACE ( 'NONE', #74, 25.39999999999999858 ) ;
#136 = CC_DESIGN_SECURITY_CLASSIFICATION ( #60, ( #50 ) ) ;
#137 = EDGE_LOOP ( 'NONE', ( #110, #124, #82, #18 ) ) ;
#138 = EDGE_CURVE ( 'NONE', #116, #108, #173, .T. ) ;
#139 = EDGE_LOOP ( 'NONE', ( #12, #93, #81, #30 ) ) ;
#140 = CARTESIAN_POINT ( 'NONE',  ( 2.500000000000000000, 0.000000000000000000, 0.000000000000000000 ) ) ;
#141 =( GEOMETRIC_REPRESENTATION_CONTEXT ( 3 ) GLOBAL_UNCERTAINTY_ASSIGNED_CONTEXT ( ( #122 ) ) GLOBAL_UNIT_ASSIGNED_CONTEXT ( ( #6, #170, #37 ) ) REPRESENTATION_CONTEXT ( 'NONE', 'WORKASPACE' ) );
#142 = PERSON_AND_ORGANIZATION ( #169, #49 ) ;
#143 = VECTOR ( 'NONE', #64, 1000.000000000000000 ) ;
#144 = PERSON_AND_ORGANIZATION ( #169, #49 ) ;
#145 = AXIS2_PLACEMENT_3D ( 'NONE', #167, #154, #58 ) ;
#146 = FACE_OUTER_BOUND ( 'NONE', #158, .T. ) ;
#147 = APPROVAL_ROLE ( '' ) ;
#148 = DIRECTION ( 'NONE',  ( -1.000000000000000000, -0.000000000000000000, -0.000000000000000000 ) ) ;
#149 = CC_DESIGN_PERSON_AND_ORGANIZATION_ASSIGNMENT ( #130, #51, ( #60 ) ) ;
#150 = MANIFOLD_SOLID_BREP ( 'Boss-Extrude1', #43 ) ;
#151 = DIRECTION ( 'NONE',  ( -1.000000000000000000, -0.000000000000000000, -0.000000000000000000 ) ) ;
#152 = DIRECTION ( 'NONE',  ( 0.000000000000000000, 0.000000000000000000, -1.000000000000000000 ) ) ;
#153 = AXIS2_PLACEMENT_3D ( 'NONE', #94, #91, #52 ) ;
#154 = DIRECTION ( 'NONE',  ( 1.000000000000000000, 0.000000000000000000, 0.000000000000000000 ) ) ;
#155 = DIRECTION ( 'NONE',  ( 0.000000000000000000, 0.000000000000000000, 1.000000000000000000 ) ) ;
#156 = COORDINATED_UNIVERSAL_TIME_OFFSET ( 5, 0, .BEHIND. ) ;
#157 = CC_DESIGN_PERSON_AND_ORGANIZATION_ASSIGNMENT ( #142, #83, ( #129 ) ) ;
#158 = EDGE_LOOP ( 'NONE', ( #134, #28 ) ) ;
#159 = CALENDAR_DATE ( 2022, 11, 3 ) ;
#160 = APPROVAL_PERSON_ORGANIZATION ( #23, #9, #11 ) ;
#161 = APPROVAL_DATE_TIME ( #107, #55 ) ;
#162 = CC_DESIGN_PERSON_AND_ORGANIZATION_ASSIGNMENT ( #126, #36, ( #10 ) ) ;
#163 = CARTESIAN_POINT ( 'NONE',  ( 2.500000000000000000, 0.000000000000000000, 0.000000000000000000 ) ) ;
#164 = CIRCLE ( 'NONE', #145, 25.39999999999999858 ) ;
#165 = CARTESIAN_POINT ( 'NONE',  ( -2.500000000000000000, 0.000000000000000000, 0.000000000000000000 ) ) ;
#166 = DATE_AND_TIME ( #111, #131 ) ;
#167 = CARTESIAN_POINT ( 'NONE',  ( 2.500000000000000000, 0.000000000000000000, 0.000000000000000000 ) ) ;
#168 = APPLICATION_CONTEXT ( 'configuration controlled 3d designs of mechanical parts and assemblies' ) ;
#169 = PERSON ( 'UNSPECIFIED', 'UNSPECIFIED', 'UNSPECIFIED', ('UNSPECIFIED'), ('UNSPECIFIED'), ('UNSPECIFIED') ) ;
#170 =( NAMED_UNIT ( * ) PLANE_ANGLE_UNIT ( ) SI_UNIT ( $, .RADIAN. ) );
#171 = APPLICATION_PROTOCOL_DEFINITION ( 'international standard', 'config_control_design', 1994, #87 ) ;
#172 = PRODUCT_RELATED_PRODUCT_CATEGORY ( 'detail', '', ( #10 ) ) ;
#173 = CIRCLE ( 'NONE', #89, 25.39999999999999858 ) ;
#174 = ADVANCED_FACE ( 'NONE', ( #128 ), #90, .T. ) ;
#175 = PRODUCT_DEFINITION_SHAPE ( 'NONE', 'NONE',  #129 ) ;
ENDSEC;
END-ISO-10303-21;
