ISO-10303-21;
HEADER;
FILE_DESCRIPTION (( 'STEP AP203' ),
    '1' );
FILE_NAME ('Web Model 84466.STEP',
    '2017-02-01T15:46:31',
    ( '' ),
    ( '' ),
    'SwSTEP 2.0',
    'SolidWorks 2016',
    '' );
FILE_SCHEMA (( 'CONFIG_CONTROL_DESIGN' ));
ENDSEC;

DATA;
#1 = LINE ( 'NONE', #151, #138 ) ;
#2 = DIRECTION ( 'NONE',  ( -1.000000000000000000, 0.0000000000000000000, 0.0000000000000000000 ) ) ;
#3 = CARTESIAN_POINT ( 'NONE',  ( 0.0000000000000000000, 0.0000000000000000000, 0.0000000000000000000 ) ) ;
#4 = ORIENTED_EDGE ( 'NONE', *, *, #56, .T. ) ;
#5 = ORGANIZATION ( 'UNSPECIFIED', 'UNSPECIFIED', '' ) ;
#6 = PERSON_AND_ORGANIZATION_ROLE ( 'design_owner' ) ;
#7 = PRODUCT ( 'Web Model 84466', 'Web Model 84466', '', ( #31 ) ) ;
#8 = DIRECTION ( 'NONE',  ( 0.0000000000000000000, 0.0000000000000000000, 1.000000000000000000 ) ) ;
#9 = ADVANCED_FACE ( 'NONE', ( #87 ), #129, .F. ) ;
#10 = ORIENTED_EDGE ( 'NONE', *, *, #104, .T. ) ;
#11 = DIRECTION ( 'NONE',  ( 0.0000000000000000000, 0.0000000000000000000, 1.000000000000000000 ) ) ;
#12 =( NAMED_UNIT ( * ) PLANE_ANGLE_UNIT ( ) SI_UNIT ( $, .RADIAN. ) );
#13 = DIRECTION ( 'NONE',  ( 1.000000000000000000, 0.0000000000000000000, 0.0000000000000000000 ) ) ;
#14 = SECURITY_CLASSIFICATION_LEVEL ( 'unclassified' ) ;
#15 = CC_DESIGN_APPROVAL ( #86, ( #28 ) ) ;
#16 = AXIS2_PLACEMENT_3D ( 'NONE', #64, #168, #146 ) ;
#17 = DIRECTION ( 'NONE',  ( -0.0000000000000000000, -0.0000000000000000000, -1.000000000000000000 ) ) ;
#18 = PERSON ( 'UNSPECIFIED', 'UNSPECIFIED', 'UNSPECIFIED', ('UNSPECIFIED'), ('UNSPECIFIED'), ('UNSPECIFIED') ) ;
#19 = VERTEX_POINT ( 'NONE', #63 ) ;
#20 = APPROVAL_DATE_TIME ( #53, #124 ) ;
#21 = CARTESIAN_POINT ( 'NONE',  ( -15.00000000000000000, 0.0000000000000000000, 0.0000000000000000000 ) ) ;
#22 = PRODUCT_DEFINITION_SHAPE ( 'NONE', 'NONE',  #28 ) ;
#23 = PERSON_AND_ORGANIZATION ( #18, #5 ) ;
#24 = ORIENTED_EDGE ( 'NONE', *, *, #95, .F. ) ;
#25 = LOCAL_TIME ( 10, 46, 31.00000000000000000, #144 ) ;
#26 = CALENDAR_DATE ( 2017, 1, 2 ) ;
#27 = CARTESIAN_POINT ( 'NONE',  ( 0.0000000000000000000, 0.0000000000000000000, 4.000000000000000000 ) ) ;
#28 = PRODUCT_DEFINITION ( 'UNKNOWN', '', #85, #113 ) ;
#29 = EDGE_LOOP ( 'NONE', ( #42, #170, #10, #111 ) ) ;
#30 = PERSON_AND_ORGANIZATION ( #18, #5 ) ;
#31 = MECHANICAL_CONTEXT ( 'NONE', #76, 'mechanical' ) ;
#32 = LOCAL_TIME ( 10, 46, 31.00000000000000000, #114 ) ;
#33 = CALENDAR_DATE ( 2017, 1, 2 ) ;
#34 = DIRECTION ( 'NONE',  ( -0.0000000000000000000, -0.0000000000000000000, -1.000000000000000000 ) ) ;
#35 = DATE_AND_TIME ( #145, #79 ) ;
#36 = PLANE ( 'NONE',  #156 ) ;
#37 = ORIENTED_EDGE ( 'NONE', *, *, #104, .F. ) ;
#38 = APPROVAL ( #48, 'UNSPECIFIED' ) ;
#39 = ADVANCED_FACE ( 'NONE', ( #157 ), #120, .T. ) ;
#40 = PERSON_AND_ORGANIZATION ( #18, #5 ) ;
#41 = PERSON_AND_ORGANIZATION ( #18, #5 ) ;
#42 = ORIENTED_EDGE ( 'NONE', *, *, #56, .F. ) ;
#43 = EDGE_LOOP ( 'NONE', ( #147, #37 ) ) ;
#44 = APPLICATION_CONTEXT ( 'configuration controlled 3d designs of mechanical parts and assemblies' ) ;
#45 = DIRECTION ( 'NONE',  ( 1.000000000000000000, 0.0000000000000000000, 0.0000000000000000000 ) ) ;
#46 = CARTESIAN_POINT ( 'NONE',  ( 0.0000000000000000000, 0.0000000000000000000, 0.0000000000000000000 ) ) ;
#47 = VECTOR ( 'NONE', #34, 1000.000000000000000 ) ;
#48 = APPROVAL_STATUS ( 'not_yet_approved' ) ;
#49 = LINE ( 'NONE', #74, #47 ) ;
#50 = CC_DESIGN_APPROVAL ( #124, ( #85 ) ) ;
#51 = AXIS2_PLACEMENT_3D ( 'NONE', #46, #88, #45 ) ;
#52 = VERTEX_POINT ( 'NONE', #62 ) ;
#53 = DATE_AND_TIME ( #130, #25 ) ;
#54 = ADVANCED_FACE ( 'NONE', ( #153 ), #106, .T. ) ;
#55 = DATE_AND_TIME ( #33, #140 ) ;
#56 = EDGE_CURVE ( 'NONE', #19, #52, #68, .T. ) ;
#57 = DIRECTION ( 'NONE',  ( 0.0000000000000000000, 0.0000000000000000000, 1.000000000000000000 ) ) ;
#58 = DIRECTION ( 'NONE',  ( -0.0000000000000000000, -0.0000000000000000000, -1.000000000000000000 ) ) ;
#59 = APPLICATION_PROTOCOL_DEFINITION ( 'international standard', 'config_control_design', 1994, #44 ) ;
#60 = CC_DESIGN_PERSON_AND_ORGANIZATION_ASSIGNMENT ( #40, #6, ( #7 ) ) ;
#61 = CIRCLE ( 'NONE', #141, 15.00000000000000000 ) ;
#62 = CARTESIAN_POINT ( 'NONE',  ( -15.00000000000000000, 0.0000000000000000000, 4.000000000000000000 ) ) ;
#63 = CARTESIAN_POINT ( 'NONE',  ( 15.00000000000000000, 1.836970198721029600E-015, 4.000000000000000000 ) ) ;
#64 = CARTESIAN_POINT ( 'NONE',  ( 0.0000000000000000000, 0.0000000000000000000, 4.000000000000000000 ) ) ;
#65 = EDGE_CURVE ( 'NONE', #149, #66, #126, .T. ) ;
#66 = VERTEX_POINT ( 'NONE', #93 ) ;
#67 = CC_DESIGN_DATE_AND_TIME_ASSIGNMENT ( #137, #139, ( #73 ) ) ;
#68 = CIRCLE ( 'NONE', #16, 15.00000000000000000 ) ;
#69 = CALENDAR_DATE ( 2017, 1, 2 ) ;
#70 =( GEOMETRIC_REPRESENTATION_CONTEXT ( 3 ) GLOBAL_UNCERTAINTY_ASSIGNED_CONTEXT ( ( #159 ) ) GLOBAL_UNIT_ASSIGNED_CONTEXT ( ( #109, #12, #135 ) ) REPRESENTATION_CONTEXT ( 'NONE', 'WORKASPACE' ) );
#71 = ADVANCED_BREP_SHAPE_REPRESENTATION ( 'Web Model 84466', ( #115, #51 ), #70 ) ;
#72 = ORIENTED_EDGE ( 'NONE', *, *, #91, .F. ) ;
#73 = SECURITY_CLASSIFICATION ( '', '', #14 ) ;
#74 = CARTESIAN_POINT ( 'NONE',  ( -15.00000000000000000, 0.0000000000000000000, 4.000000000000000000 ) ) ;
#75 = APPROVAL_STATUS ( 'not_yet_approved' ) ;
#76 = APPLICATION_CONTEXT ( 'configuration controlled 3d designs of mechanical parts and assemblies' ) ;
#77 = PERSON_AND_ORGANIZATION_ROLE ( 'creator' ) ;
#78 = PERSON_AND_ORGANIZATION_ROLE ( 'classification_officer' ) ;
#79 = LOCAL_TIME ( 10, 46, 31.00000000000000000, #97 ) ;
#80 = EDGE_CURVE ( 'NONE', #52, #149, #49, .T. ) ;
#81 = ORIENTED_EDGE ( 'NONE', *, *, #95, .T. ) ;
#82 = CC_DESIGN_SECURITY_CLASSIFICATION ( #73, ( #85 ) ) ;
#83 = DIRECTION ( 'NONE',  ( -0.0000000000000000000, -0.0000000000000000000, -1.000000000000000000 ) ) ;
#84 = EDGE_LOOP ( 'NONE', ( #81, #4 ) ) ;
#85 = PRODUCT_DEFINITION_FORMATION_WITH_SPECIFIED_SOURCE ( 'ANY', '', #7, .NOT_KNOWN. ) ;
#86 = APPROVAL ( #75, 'UNSPECIFIED' ) ;
#87 = FACE_OUTER_BOUND ( 'NONE', #43, .T. ) ;
#88 = DIRECTION ( 'NONE',  ( 0.0000000000000000000, 0.0000000000000000000, 1.000000000000000000 ) ) ;
#89 = SHAPE_DEFINITION_REPRESENTATION ( #22, #71 ) ;
#90 = DIRECTION ( 'NONE',  ( 1.000000000000000000, 0.0000000000000000000, 0.0000000000000000000 ) ) ;
#91 = EDGE_CURVE ( 'NONE', #19, #66, #1, .T. ) ;
#92 = DATE_TIME_ROLE ( 'creation_date' ) ;
#93 = CARTESIAN_POINT ( 'NONE',  ( 15.00000000000000000, 1.836970198721029600E-015, 0.0000000000000000000 ) ) ;
#94 = APPLICATION_PROTOCOL_DEFINITION ( 'international standard', 'config_control_design', 1994, #76 ) ;
#95 = EDGE_CURVE ( 'NONE', #52, #19, #61, .T. ) ;
#96 = CC_DESIGN_PERSON_AND_ORGANIZATION_ASSIGNMENT ( #41, #77, ( #85 ) ) ;
#97 = COORDINATED_UNIVERSAL_TIME_OFFSET ( 5, 0, .BEHIND. ) ;
#98 = CLOSED_SHELL ( 'NONE', ( #39, #54, #171, #9 ) ) ;
#99 = CC_DESIGN_APPROVAL ( #38, ( #73 ) ) ;
#100 = PERSON_AND_ORGANIZATION ( #18, #5 ) ;
#101 = DIRECTION ( 'NONE',  ( 0.0000000000000000000, 0.0000000000000000000, 1.000000000000000000 ) ) ;
#102 = AXIS2_PLACEMENT_3D ( 'NONE', #128, #11, #174 ) ;
#103 = COORDINATED_UNIVERSAL_TIME_OFFSET ( 5, 0, .BEHIND. ) ;
#104 = EDGE_CURVE ( 'NONE', #66, #149, #152, .T. ) ;
#105 = CC_DESIGN_DATE_AND_TIME_ASSIGNMENT ( #55, #92, ( #28 ) ) ;
#106 = CYLINDRICAL_SURFACE ( 'NONE', #132, 15.00000000000000000 ) ;
#107 = APPROVAL_DATE_TIME ( #142, #86 ) ;
#108 = CARTESIAN_POINT ( 'NONE',  ( 0.0000000000000000000, 0.0000000000000000000, 4.000000000000000000 ) ) ;
#109 =( LENGTH_UNIT ( ) NAMED_UNIT ( * ) SI_UNIT ( .MILLI., .METRE. ) );
#110 = APPROVAL_DATE_TIME ( #35, #38 ) ;
#111 = ORIENTED_EDGE ( 'NONE', *, *, #80, .F. ) ;
#112 = CARTESIAN_POINT ( 'NONE',  ( 0.0000000000000000000, 0.0000000000000000000, 0.0000000000000000000 ) ) ;
#113 = DESIGN_CONTEXT ( 'detailed design', #44, 'design' ) ;
#114 = COORDINATED_UNIVERSAL_TIME_OFFSET ( 5, 0, .BEHIND. ) ;
#115 = MANIFOLD_SOLID_BREP ( 'Extrude1', #98 ) ;
#116 = APPROVAL_ROLE ( '' ) ;
#117 = PERSON_AND_ORGANIZATION ( #18, #5 ) ;
#118 = AXIS2_PLACEMENT_3D ( 'NONE', #3, #101, #166 ) ;
#119 = PRODUCT_RELATED_PRODUCT_CATEGORY ( 'detail', '', ( #7 ) ) ;
#120 = CYLINDRICAL_SURFACE ( 'NONE', #150, 15.00000000000000000 ) ;
#121 = APPROVAL_PERSON_ORGANIZATION ( #154, #86, #148 ) ;
#122 = PERSON_AND_ORGANIZATION ( #18, #5 ) ;
#123 = CARTESIAN_POINT ( 'NONE',  ( 0.0000000000000000000, 0.0000000000000000000, 4.000000000000000000 ) ) ;
#124 = APPROVAL ( #173, 'UNSPECIFIED' ) ;
#125 = EDGE_LOOP ( 'NONE', ( #72, #24, #163, #155 ) ) ;
#126 = CIRCLE ( 'NONE', #102, 15.00000000000000000 ) ;
#127 = LOCAL_TIME ( 10, 46, 31.00000000000000000, #103 ) ;
#128 = CARTESIAN_POINT ( 'NONE',  ( 0.0000000000000000000, 0.0000000000000000000, 0.0000000000000000000 ) ) ;
#129 = PLANE ( 'NONE',  #118 ) ;
#130 = CALENDAR_DATE ( 2017, 1, 2 ) ;
#131 = FACE_OUTER_BOUND ( 'NONE', #84, .T. ) ;
#132 = AXIS2_PLACEMENT_3D ( 'NONE', #27, #17, #158 ) ;
#133 = DIRECTION ( 'NONE',  ( 1.000000000000000000, 0.0000000000000000000, -0.0000000000000000000 ) ) ;
#134 = COORDINATED_UNIVERSAL_TIME_OFFSET ( 5, 0, .BEHIND. ) ;
#135 =( NAMED_UNIT ( * ) SI_UNIT ( $, .STERADIAN. ) SOLID_ANGLE_UNIT ( ) );
#136 = CC_DESIGN_PERSON_AND_ORGANIZATION_ASSIGNMENT ( #23, #175, ( #85 ) ) ;
#137 = DATE_AND_TIME ( #26, #127 ) ;
#138 = VECTOR ( 'NONE', #58, 1000.000000000000000 ) ;
#139 = DATE_TIME_ROLE ( 'classification_date' ) ;
#140 = LOCAL_TIME ( 10, 46, 31.00000000000000000, #134 ) ;
#141 = AXIS2_PLACEMENT_3D ( 'NONE', #160, #8, #13 ) ;
#142 = DATE_AND_TIME ( #69, #32 ) ;
#143 = CC_DESIGN_PERSON_AND_ORGANIZATION_ASSIGNMENT ( #117, #169, ( #28 ) ) ;
#144 = COORDINATED_UNIVERSAL_TIME_OFFSET ( 5, 0, .BEHIND. ) ;
#145 = CALENDAR_DATE ( 2017, 1, 2 ) ;
#146 = DIRECTION ( 'NONE',  ( 1.000000000000000000, 0.0000000000000000000, 0.0000000000000000000 ) ) ;
#147 = ORIENTED_EDGE ( 'NONE', *, *, #65, .F. ) ;
#148 = APPROVAL_ROLE ( '' ) ;
#149 = VERTEX_POINT ( 'NONE', #21 ) ;
#150 = AXIS2_PLACEMENT_3D ( 'NONE', #123, #83, #2 ) ;
#151 = CARTESIAN_POINT ( 'NONE',  ( 15.00000000000000000, 1.836970198721029600E-015, 4.000000000000000000 ) ) ;
#152 = CIRCLE ( 'NONE', #164, 15.00000000000000000 ) ;
#153 = FACE_OUTER_BOUND ( 'NONE', #125, .T. ) ;
#154 = PERSON_AND_ORGANIZATION ( #18, #5 ) ;
#155 = ORIENTED_EDGE ( 'NONE', *, *, #65, .T. ) ;
#156 = AXIS2_PLACEMENT_3D ( 'NONE', #108, #57, #133 ) ;
#157 = FACE_OUTER_BOUND ( 'NONE', #29, .T. ) ;
#158 = DIRECTION ( 'NONE',  ( -1.000000000000000000, 0.0000000000000000000, 0.0000000000000000000 ) ) ;
#159 = UNCERTAINTY_MEASURE_WITH_UNIT (LENGTH_MEASURE( 1.000000000000000100E-005 ), #109, 'distance_accuracy_value', 'NONE');
#160 = CARTESIAN_POINT ( 'NONE',  ( 0.0000000000000000000, 0.0000000000000000000, 4.000000000000000000 ) ) ;
#161 = CC_DESIGN_PERSON_AND_ORGANIZATION_ASSIGNMENT ( #30, #78, ( #73 ) ) ;
#162 = APPROVAL_ROLE ( '' ) ;
#163 = ORIENTED_EDGE ( 'NONE', *, *, #80, .T. ) ;
#164 = AXIS2_PLACEMENT_3D ( 'NONE', #112, #172, #90 ) ;
#165 = APPROVAL_PERSON_ORGANIZATION ( #100, #38, #116 ) ;
#166 = DIRECTION ( 'NONE',  ( 1.000000000000000000, 0.0000000000000000000, -0.0000000000000000000 ) ) ;
#167 = APPROVAL_PERSON_ORGANIZATION ( #122, #124, #162 ) ;
#168 = DIRECTION ( 'NONE',  ( 0.0000000000000000000, 0.0000000000000000000, 1.000000000000000000 ) ) ;
#169 = PERSON_AND_ORGANIZATION_ROLE ( 'creator' ) ;
#170 = ORIENTED_EDGE ( 'NONE', *, *, #91, .T. ) ;
#171 = ADVANCED_FACE ( 'NONE', ( #131 ), #36, .T. ) ;
#172 = DIRECTION ( 'NONE',  ( 0.0000000000000000000, 0.0000000000000000000, 1.000000000000000000 ) ) ;
#173 = APPROVAL_STATUS ( 'not_yet_approved' ) ;
#174 = DIRECTION ( 'NONE',  ( 1.000000000000000000, 0.0000000000000000000, 0.0000000000000000000 ) ) ;
#175 = PERSON_AND_ORGANIZATION_ROLE ( 'design_supplier' ) ;
ENDSEC;
END-ISO-10303-21;
