ISO-10303-21;
HEADER;
FILE_DESCRIPTION (( 'STEP AP203' ),
    '1' );
FILE_NAME ('Web Model 64084.STEP',
    '2017-01-31T19:03:07',
    ( '' ),
    ( '' ),
    'SwSTEP 2.0',
    'SolidWorks 2016',
    '' );
FILE_SCHEMA (( 'CONFIG_CONTROL_DESIGN' ));
ENDSEC;

DATA;
#1 = CARTESIAN_POINT ( 'NONE',  ( 5.000000000000000900, -5.000000000000000900, 0.0000000000000000000 ) ) ;
#2 = CARTESIAN_POINT ( 'NONE',  ( -5.000000000000000900, 5.000000000000000900, 0.0000000000000000000 ) ) ;
#3 = ORIENTED_EDGE ( 'NONE', *, *, #148, .T. ) ;
#4 = VECTOR ( 'NONE', #24, 1000.000000000000000 ) ;
#5 = MANIFOLD_SOLID_BREP ( 'Extrude1', #25 ) ;
#6 = ORIENTED_EDGE ( 'NONE', *, *, #116, .T. ) ;
#7 = PLANE ( 'NONE',  #94 ) ;
#8 = DATE_TIME_ROLE ( 'creation_date' ) ;
#9 = CARTESIAN_POINT ( 'NONE',  ( 0.0000000000000000000, 0.0000000000000000000, 0.0000000000000000000 ) ) ;
#10 = EDGE_LOOP ( 'NONE', ( #160, #169, #77, #142 ) ) ;
#11 = FACE_OUTER_BOUND ( 'NONE', #196, .T. ) ;
#12 = DATE_AND_TIME ( #112, #66 ) ;
#13 = PERSON_AND_ORGANIZATION ( #89, #32 ) ;
#14 = ADVANCED_FACE ( 'NONE', ( #11 ), #171, .F. ) ;
#15 = CALENDAR_DATE ( 2017, 31, 1 ) ;
#16 = CARTESIAN_POINT ( 'NONE',  ( -5.000000000000000900, -5.000000000000000900, 0.0000000000000000000 ) ) ;
#17 = PLANE ( 'NONE',  #122 ) ;
#18 = DESIGN_CONTEXT ( 'detailed design', #78, 'design' ) ;
#19 = VECTOR ( 'NONE', #220, 1000.000000000000000 ) ;
#20 = DIRECTION ( 'NONE',  ( -1.000000000000000000, -0.0000000000000000000, -0.0000000000000000000 ) ) ;
#21 = PRODUCT ( 'Web Model 64084', 'Web Model 64084', '', ( #159 ) ) ;
#22 = CARTESIAN_POINT ( 'NONE',  ( 5.000000000000000900, 5.000000000000000900, 1.000000000000000000 ) ) ;
#23 = DIRECTION ( 'NONE',  ( 1.000000000000000000, 0.0000000000000000000, 0.0000000000000000000 ) ) ;
#24 = DIRECTION ( 'NONE',  ( -0.0000000000000000000, -0.0000000000000000000, -1.000000000000000000 ) ) ;
#25 = CLOSED_SHELL ( 'NONE', ( #111, #225, #72, #50, #14, #164 ) ) ;
#26 = DIRECTION ( 'NONE',  ( -0.0000000000000000000, -0.0000000000000000000, -1.000000000000000000 ) ) ;
#27 =( LENGTH_UNIT ( ) NAMED_UNIT ( * ) SI_UNIT ( .MILLI., .METRE. ) );
#28 = COORDINATED_UNIVERSAL_TIME_OFFSET ( 5, 0, .BEHIND. ) ;
#29 = FACE_OUTER_BOUND ( 'NONE', #64, .T. ) ;
#30 = DATE_AND_TIME ( #104, #204 ) ;
#31 = PERSON_AND_ORGANIZATION ( #89, #32 ) ;
#32 = ORGANIZATION ( 'UNSPECIFIED', 'UNSPECIFIED', '' ) ;
#33 = VERTEX_POINT ( 'NONE', #237 ) ;
#34 = DIRECTION ( 'NONE',  ( -0.0000000000000000000, -1.000000000000000000, -0.0000000000000000000 ) ) ;
#35 = CARTESIAN_POINT ( 'NONE',  ( 5.000000000000000900, 5.000000000000000900, 0.0000000000000000000 ) ) ;
#36 = COORDINATED_UNIVERSAL_TIME_OFFSET ( 5, 0, .BEHIND. ) ;
#37 = CARTESIAN_POINT ( 'NONE',  ( -5.000000000000000900, -5.000000000000000900, 1.000000000000000000 ) ) ;
#38 = ADVANCED_BREP_SHAPE_REPRESENTATION ( 'Web Model 64084', ( #5, #165 ), #105 ) ;
#39 = ORIENTED_EDGE ( 'NONE', *, *, #197, .T. ) ;
#40 = CARTESIAN_POINT ( 'NONE',  ( -5.000000000000000900, 5.000000000000000900, 1.000000000000000000 ) ) ;
#41 = PERSON_AND_ORGANIZATION_ROLE ( 'creator' ) ;
#42 = VECTOR ( 'NONE', #26, 1000.000000000000000 ) ;
#43 = APPLICATION_PROTOCOL_DEFINITION ( 'international standard', 'config_control_design', 1994, #78 ) ;
#44 = PERSON_AND_ORGANIZATION ( #89, #32 ) ;
#45 = APPLICATION_PROTOCOL_DEFINITION ( 'international standard', 'config_control_design', 1994, #212 ) ;
#46 = CARTESIAN_POINT ( 'NONE',  ( -5.000000000000000900, 5.000000000000000900, 1.000000000000000000 ) ) ;
#47 = DIRECTION ( 'NONE',  ( -0.0000000000000000000, -0.0000000000000000000, -1.000000000000000000 ) ) ;
#48 = AXIS2_PLACEMENT_3D ( 'NONE', #51, #226, #114 ) ;
#49 = VECTOR ( 'NONE', #47, 1000.000000000000000 ) ;
#50 = ADVANCED_FACE ( 'NONE', ( #86 ), #17, .F. ) ;
#51 = CARTESIAN_POINT ( 'NONE',  ( 5.000000000000000900, -5.000000000000000900, 1.000000000000000000 ) ) ;
#52 = CARTESIAN_POINT ( 'NONE',  ( -5.000000000000000900, -5.000000000000000900, 0.0000000000000000000 ) ) ;
#53 = ORIENTED_EDGE ( 'NONE', *, *, #148, .F. ) ;
#54 = CC_DESIGN_APPROVAL ( #216, ( #185 ) ) ;
#55 = EDGE_CURVE ( 'NONE', #173, #93, #236, .T. ) ;
#56 = FACE_OUTER_BOUND ( 'NONE', #10, .T. ) ;
#57 = DIRECTION ( 'NONE',  ( 0.0000000000000000000, 0.0000000000000000000, -1.000000000000000000 ) ) ;
#58 = APPROVAL ( #210, 'UNSPECIFIED' ) ;
#59 = LINE ( 'NONE', #16, #201 ) ;
#60 = VERTEX_POINT ( 'NONE', #1 ) ;
#61 = CARTESIAN_POINT ( 'NONE',  ( -5.000000000000000900, 5.000000000000000900, 0.0000000000000000000 ) ) ;
#62 = PERSON_AND_ORGANIZATION ( #89, #32 ) ;
#63 = APPROVAL_ROLE ( '' ) ;
#64 = EDGE_LOOP ( 'NONE', ( #39, #170, #53, #190 ) ) ;
#65 = APPROVAL_ROLE ( '' ) ;
#66 = LOCAL_TIME ( 14, 3, 7.000000000000000000, #67 ) ;
#67 = COORDINATED_UNIVERSAL_TIME_OFFSET ( 5, 0, .BEHIND. ) ;
#68 = CARTESIAN_POINT ( 'NONE',  ( -5.000000000000000900, 5.000000000000000900, 1.000000000000000000 ) ) ;
#69 = DIRECTION ( 'NONE',  ( -1.000000000000000000, -0.0000000000000000000, -0.0000000000000000000 ) ) ;
#70 = LINE ( 'NONE', #90, #73 ) ;
#71 = COORDINATED_UNIVERSAL_TIME_OFFSET ( 5, 0, .BEHIND. ) ;
#72 = ADVANCED_FACE ( 'NONE', ( #184 ), #75, .F. ) ;
#73 = VECTOR ( 'NONE', #195, 1000.000000000000000 ) ;
#74 = EDGE_CURVE ( 'NONE', #83, #154, #213, .T. ) ;
#75 = PLANE ( 'NONE',  #48 ) ;
#76 = CARTESIAN_POINT ( 'NONE',  ( 5.000000000000000900, -5.000000000000000900, 1.000000000000000000 ) ) ;
#77 = ORIENTED_EDGE ( 'NONE', *, *, #189, .F. ) ;
#78 = APPLICATION_CONTEXT ( 'configuration controlled 3d designs of mechanical parts and assemblies' ) ;
#79 = CC_DESIGN_DATE_AND_TIME_ASSIGNMENT ( #12, #8, ( #231 ) ) ;
#80 = PERSON_AND_ORGANIZATION_ROLE ( 'creator' ) ;
#81 = UNCERTAINTY_MEASURE_WITH_UNIT (LENGTH_MEASURE( 1.000000000000000100E-005 ), #27, 'distance_accuracy_value', 'NONE');
#82 = CC_DESIGN_PERSON_AND_ORGANIZATION_ASSIGNMENT ( #31, #80, ( #231 ) ) ;
#83 = VERTEX_POINT ( 'NONE', #22 ) ;
#84 = EDGE_CURVE ( 'NONE', #173, #33, #70, .T. ) ;
#85 = APPROVAL_PERSON_ORGANIZATION ( #223, #163, #65 ) ;
#86 = FACE_OUTER_BOUND ( 'NONE', #209, .T. ) ;
#87 = PERSON_AND_ORGANIZATION ( #89, #32 ) ;
#88 = LINE ( 'NONE', #182, #110 ) ;
#89 = PERSON ( 'UNSPECIFIED', 'UNSPECIFIED', 'UNSPECIFIED', ('UNSPECIFIED'), ('UNSPECIFIED'), ('UNSPECIFIED') ) ;
#90 = CARTESIAN_POINT ( 'NONE',  ( -5.000000000000000900, -5.000000000000000900, 1.000000000000000000 ) ) ;
#91 = LINE ( 'NONE', #52, #19 ) ;
#92 = LINE ( 'NONE', #68, #109 ) ;
#93 = VERTEX_POINT ( 'NONE', #187 ) ;
#94 = AXIS2_PLACEMENT_3D ( 'NONE', #191, #115, #139 ) ;
#95 = APPROVAL_ROLE ( '' ) ;
#96 = PERSON_AND_ORGANIZATION ( #89, #32 ) ;
#97 = PERSON_AND_ORGANIZATION_ROLE ( 'design_owner' ) ;
#98 = CC_DESIGN_SECURITY_CLASSIFICATION ( #150, ( #185 ) ) ;
#99 = ORIENTED_EDGE ( 'NONE', *, *, #189, .T. ) ;
#100 = EDGE_CURVE ( 'NONE', #180, #126, #121, .T. ) ;
#101 = SECURITY_CLASSIFICATION_LEVEL ( 'unclassified' ) ;
#102 = FACE_OUTER_BOUND ( 'NONE', #166, .T. ) ;
#103 = ORIENTED_EDGE ( 'NONE', *, *, #55, .T. ) ;
#104 = CALENDAR_DATE ( 2017, 31, 1 ) ;
#105 =( GEOMETRIC_REPRESENTATION_CONTEXT ( 3 ) GLOBAL_UNCERTAINTY_ASSIGNED_CONTEXT ( ( #81 ) ) GLOBAL_UNIT_ASSIGNED_CONTEXT ( ( #27, #119, #140 ) ) REPRESENTATION_CONTEXT ( 'NONE', 'WORKASPACE' ) );
#106 = ORIENTED_EDGE ( 'NONE', *, *, #155, .F. ) ;
#107 = APPROVAL_DATE_TIME ( #235, #216 ) ;
#108 = DIRECTION ( 'NONE',  ( -1.000000000000000000, 0.0000000000000000000, -0.0000000000000000000 ) ) ;
#109 = VECTOR ( 'NONE', #69, 1000.000000000000000 ) ;
#110 = VECTOR ( 'NONE', #34, 1000.000000000000000 ) ;
#111 = ADVANCED_FACE ( 'NONE', ( #29 ), #177, .F. ) ;
#112 = CALENDAR_DATE ( 2017, 31, 1 ) ;
#113 = ORIENTED_EDGE ( 'NONE', *, *, #224, .T. ) ;
#114 = DIRECTION ( 'NONE',  ( 0.0000000000000000000, 0.0000000000000000000, 1.000000000000000000 ) ) ;
#115 = DIRECTION ( 'NONE',  ( 0.0000000000000000000, 1.000000000000000000, 0.0000000000000000000 ) ) ;
#116 = EDGE_CURVE ( 'NONE', #154, #126, #144, .T. ) ;
#117 = VECTOR ( 'NONE', #23, 1000.000000000000000 ) ;
#118 = APPROVAL_DATE_TIME ( #124, #58 ) ;
#119 =( NAMED_UNIT ( * ) PLANE_ANGLE_UNIT ( ) SI_UNIT ( $, .RADIAN. ) );
#120 = CC_DESIGN_PERSON_AND_ORGANIZATION_ASSIGNMENT ( #96, #41, ( #185 ) ) ;
#121 = LINE ( 'NONE', #46, #49 ) ;
#122 = AXIS2_PLACEMENT_3D ( 'NONE', #168, #151, #156 ) ;
#123 = COORDINATED_UNIVERSAL_TIME_OFFSET ( 5, 0, .BEHIND. ) ;
#124 = DATE_AND_TIME ( #205, #147 ) ;
#125 = APPROVAL_STATUS ( 'not_yet_approved' ) ;
#126 = VERTEX_POINT ( 'NONE', #61 ) ;
#127 = CC_DESIGN_APPROVAL ( #163, ( #150 ) ) ;
#128 = APPROVAL_DATE_TIME ( #30, #163 ) ;
#129 = LINE ( 'NONE', #76, #42 ) ;
#130 = ORIENTED_EDGE ( 'NONE', *, *, #55, .F. ) ;
#131 = PERSON_AND_ORGANIZATION ( #89, #32 ) ;
#132 = CC_DESIGN_PERSON_AND_ORGANIZATION_ASSIGNMENT ( #131, #161, ( #185 ) ) ;
#133 = ORIENTED_EDGE ( 'NONE', *, *, #155, .T. ) ;
#134 = PLANE ( 'NONE',  #211 ) ;
#135 = CARTESIAN_POINT ( 'NONE',  ( 5.000000000000000900, 5.000000000000000900, 1.000000000000000000 ) ) ;
#136 = CALENDAR_DATE ( 2017, 31, 1 ) ;
#137 = VECTOR ( 'NONE', #176, 1000.000000000000000 ) ;
#138 = DIRECTION ( 'NONE',  ( 1.000000000000000000, 0.0000000000000000000, 0.0000000000000000000 ) ) ;
#139 = DIRECTION ( 'NONE',  ( 0.0000000000000000000, -0.0000000000000000000, 1.000000000000000000 ) ) ;
#140 =( NAMED_UNIT ( * ) SI_UNIT ( $, .STERADIAN. ) SOLID_ANGLE_UNIT ( ) );
#141 = APPROVAL_STATUS ( 'not_yet_approved' ) ;
#142 = ORIENTED_EDGE ( 'NONE', *, *, #174, .F. ) ;
#143 = SHAPE_DEFINITION_REPRESENTATION ( #158, #38 ) ;
#144 = LINE ( 'NONE', #145, #153 ) ;
#145 = CARTESIAN_POINT ( 'NONE',  ( -5.000000000000000900, 5.000000000000000900, 0.0000000000000000000 ) ) ;
#146 = PRODUCT_RELATED_PRODUCT_CATEGORY ( 'detail', '', ( #21 ) ) ;
#147 = LOCAL_TIME ( 14, 3, 7.000000000000000000, #28 ) ;
#148 = EDGE_CURVE ( 'NONE', #180, #173, #88, .T. ) ;
#149 = DIRECTION ( 'NONE',  ( 0.0000000000000000000, 0.0000000000000000000, -1.000000000000000000 ) ) ;
#150 = SECURITY_CLASSIFICATION ( '', '', #101 ) ;
#151 = DIRECTION ( 'NONE',  ( 0.0000000000000000000, -1.000000000000000000, 0.0000000000000000000 ) ) ;
#152 = CARTESIAN_POINT ( 'NONE',  ( 5.000000000000000900, -5.000000000000000900, 0.0000000000000000000 ) ) ;
#153 = VECTOR ( 'NONE', #20, 1000.000000000000000 ) ;
#154 = VERTEX_POINT ( 'NONE', #35 ) ;
#155 = EDGE_CURVE ( 'NONE', #83, #180, #92, .T. ) ;
#156 = DIRECTION ( 'NONE',  ( 0.0000000000000000000, -0.0000000000000000000, -1.000000000000000000 ) ) ;
#157 = DIRECTION ( 'NONE',  ( 0.0000000000000000000, 1.000000000000000000, 0.0000000000000000000 ) ) ;
#158 = PRODUCT_DEFINITION_SHAPE ( 'NONE', 'NONE',  #231 ) ;
#159 = MECHANICAL_CONTEXT ( 'NONE', #212, 'mechanical' ) ;
#160 = ORIENTED_EDGE ( 'NONE', *, *, #197, .F. ) ;
#161 = PERSON_AND_ORGANIZATION_ROLE ( 'design_supplier' ) ;
#162 = EDGE_LOOP ( 'NONE', ( #99, #186, #208, #113 ) ) ;
#163 = APPROVAL ( #125, 'UNSPECIFIED' ) ;
#164 = ADVANCED_FACE ( 'NONE', ( #56 ), #134, .T. ) ;
#165 = AXIS2_PLACEMENT_3D ( 'NONE', #9, #175, #138 ) ;
#166 = EDGE_LOOP ( 'NONE', ( #202, #222, #130, #233 ) ) ;
#167 = LOCAL_TIME ( 14, 3, 7.000000000000000000, #71 ) ;
#168 = CARTESIAN_POINT ( 'NONE',  ( -5.000000000000000900, 5.000000000000000900, 1.000000000000000000 ) ) ;
#169 = ORIENTED_EDGE ( 'NONE', *, *, #116, .F. ) ;
#170 = ORIENTED_EDGE ( 'NONE', *, *, #84, .F. ) ;
#171 = PLANE ( 'NONE',  #181 ) ;
#172 = ORIENTED_EDGE ( 'NONE', *, *, #234, .T. ) ;
#173 = VERTEX_POINT ( 'NONE', #206 ) ;
#174 = EDGE_CURVE ( 'NONE', #33, #60, #91, .T. ) ;
#175 = DIRECTION ( 'NONE',  ( 0.0000000000000000000, 0.0000000000000000000, 1.000000000000000000 ) ) ;
#176 = DIRECTION ( 'NONE',  ( 0.0000000000000000000, 1.000000000000000000, 0.0000000000000000000 ) ) ;
#177 = PLANE ( 'NONE',  #178 ) ;
#178 = AXIS2_PLACEMENT_3D ( 'NONE', #215, #229, #149 ) ;
#179 = VECTOR ( 'NONE', #157, 1000.000000000000000 ) ;
#180 = VERTEX_POINT ( 'NONE', #203 ) ;
#181 = AXIS2_PLACEMENT_3D ( 'NONE', #40, #57, #219 ) ;
#182 = CARTESIAN_POINT ( 'NONE',  ( -5.000000000000000900, -5.000000000000000900, 1.000000000000000000 ) ) ;
#183 = LOCAL_TIME ( 14, 3, 7.000000000000000000, #36 ) ;
#184 = FACE_OUTER_BOUND ( 'NONE', #162, .T. ) ;
#185 = PRODUCT_DEFINITION_FORMATION_WITH_SPECIFIED_SOURCE ( 'ANY', '', #21, .NOT_KNOWN. ) ;
#186 = ORIENTED_EDGE ( 'NONE', *, *, #74, .F. ) ;
#187 = CARTESIAN_POINT ( 'NONE',  ( 5.000000000000000900, -5.000000000000000900, 1.000000000000000000 ) ) ;
#188 = DIRECTION ( 'NONE',  ( -0.0000000000000000000, -1.000000000000000000, -0.0000000000000000000 ) ) ;
#189 = EDGE_CURVE ( 'NONE', #60, #154, #192, .T. ) ;
#190 = ORIENTED_EDGE ( 'NONE', *, *, #100, .T. ) ;
#191 = CARTESIAN_POINT ( 'NONE',  ( -5.000000000000000900, -5.000000000000000900, 1.000000000000000000 ) ) ;
#192 = LINE ( 'NONE', #152, #179 ) ;
#193 = ORIENTED_EDGE ( 'NONE', *, *, #100, .F. ) ;
#194 = CC_DESIGN_APPROVAL ( #58, ( #231 ) ) ;
#195 = DIRECTION ( 'NONE',  ( -0.0000000000000000000, -0.0000000000000000000, -1.000000000000000000 ) ) ;
#196 = EDGE_LOOP ( 'NONE', ( #3, #103, #172, #133 ) ) ;
#197 = EDGE_CURVE ( 'NONE', #126, #33, #59, .T. ) ;
#198 = APPROVAL_PERSON_ORGANIZATION ( #62, #216, #95 ) ;
#199 = CC_DESIGN_PERSON_AND_ORGANIZATION_ASSIGNMENT ( #13, #97, ( #21 ) ) ;
#200 = DIRECTION ( 'NONE',  ( 0.0000000000000000000, 0.0000000000000000000, -1.000000000000000000 ) ) ;
#201 = VECTOR ( 'NONE', #188, 1000.000000000000000 ) ;
#202 = ORIENTED_EDGE ( 'NONE', *, *, #174, .T. ) ;
#203 = CARTESIAN_POINT ( 'NONE',  ( -5.000000000000000900, 5.000000000000000900, 1.000000000000000000 ) ) ;
#204 = LOCAL_TIME ( 14, 3, 7.000000000000000000, #123 ) ;
#205 = CALENDAR_DATE ( 2017, 31, 1 ) ;
#206 = CARTESIAN_POINT ( 'NONE',  ( -5.000000000000000900, -5.000000000000000900, 1.000000000000000000 ) ) ;
#207 = CC_DESIGN_PERSON_AND_ORGANIZATION_ASSIGNMENT ( #87, #217, ( #150 ) ) ;
#208 = ORIENTED_EDGE ( 'NONE', *, *, #234, .F. ) ;
#209 = EDGE_LOOP ( 'NONE', ( #6, #193, #106, #228 ) ) ;
#210 = APPROVAL_STATUS ( 'not_yet_approved' ) ;
#211 = AXIS2_PLACEMENT_3D ( 'NONE', #2, #200, #108 ) ;
#212 = APPLICATION_CONTEXT ( 'configuration controlled 3d designs of mechanical parts and assemblies' ) ;
#213 = LINE ( 'NONE', #135, #4 ) ;
#214 = CARTESIAN_POINT ( 'NONE',  ( 5.000000000000000900, -5.000000000000000900, 1.000000000000000000 ) ) ;
#215 = CARTESIAN_POINT ( 'NONE',  ( -5.000000000000000900, -5.000000000000000900, 1.000000000000000000 ) ) ;
#216 = APPROVAL ( #141, 'UNSPECIFIED' ) ;
#217 = PERSON_AND_ORGANIZATION_ROLE ( 'classification_officer' ) ;
#218 = DATE_AND_TIME ( #136, #183 ) ;
#219 = DIRECTION ( 'NONE',  ( -1.000000000000000000, 0.0000000000000000000, -0.0000000000000000000 ) ) ;
#220 = DIRECTION ( 'NONE',  ( 1.000000000000000000, 0.0000000000000000000, 0.0000000000000000000 ) ) ;
#221 = CC_DESIGN_DATE_AND_TIME_ASSIGNMENT ( #218, #230, ( #150 ) ) ;
#222 = ORIENTED_EDGE ( 'NONE', *, *, #224, .F. ) ;
#223 = PERSON_AND_ORGANIZATION ( #89, #32 ) ;
#224 = EDGE_CURVE ( 'NONE', #93, #60, #129, .T. ) ;
#225 = ADVANCED_FACE ( 'NONE', ( #102 ), #7, .F. ) ;
#226 = DIRECTION ( 'NONE',  ( -1.000000000000000000, 0.0000000000000000000, 0.0000000000000000000 ) ) ;
#227 = APPROVAL_PERSON_ORGANIZATION ( #44, #58, #63 ) ;
#228 = ORIENTED_EDGE ( 'NONE', *, *, #74, .T. ) ;
#229 = DIRECTION ( 'NONE',  ( 1.000000000000000000, 0.0000000000000000000, 0.0000000000000000000 ) ) ;
#230 = DATE_TIME_ROLE ( 'classification_date' ) ;
#231 = PRODUCT_DEFINITION ( 'UNKNOWN', '', #185, #18 ) ;
#232 = LINE ( 'NONE', #214, #137 ) ;
#233 = ORIENTED_EDGE ( 'NONE', *, *, #84, .T. ) ;
#234 = EDGE_CURVE ( 'NONE', #93, #83, #232, .T. ) ;
#235 = DATE_AND_TIME ( #15, #167 ) ;
#236 = LINE ( 'NONE', #37, #117 ) ;
#237 = CARTESIAN_POINT ( 'NONE',  ( -5.000000000000000900, -5.000000000000000900, 0.0000000000000000000 ) ) ;
ENDSEC;
END-ISO-10303-21;
