ISO-10303-21;
HEADER;
FILE_DESCRIPTION (( 'STEP AP203' ),
    '1' );
FILE_NAME ('Web Model 31411_46671.step',
    '2017-04-10T17:51:24',
    ( '' ),
    ( '' ),
    'SwSTEP 2.0',
    'SolidWorks 2016',
    '' );
FILE_SCHEMA (( 'CONFIG_CONTROL_DESIGN' ));
ENDSEC;

DATA;
#1 = CARTESIAN_POINT ( 'NONE',  ( 12.50000000000000200, 37.99999999999997900, 1.000000000000000000 ) ) ;
#2 =( LENGTH_UNIT ( ) NAMED_UNIT ( * ) SI_UNIT ( .MILLI., .METRE. ) );
#3 = PLANE ( 'NONE',  #139 ) ;
#4 = LOCAL_TIME ( 13, 51, 24.00000000000000000, #208 ) ;
#5 = DIRECTION ( 'NONE',  ( 1.369518533665900300E-016, -1.000000000000000000, 0.0000000000000000000 ) ) ;
#6 = CARTESIAN_POINT ( 'NONE',  ( 0.0000000000000000000, 0.0000000000000000000, -1.000000000000000000 ) ) ;
#7 = DIRECTION ( 'NONE',  ( 1.000000000000000000, 0.0000000000000000000, 0.0000000000000000000 ) ) ;
#8 = ORIENTED_EDGE ( 'NONE', *, *, #153, .F. ) ;
#9 = DIRECTION ( 'NONE',  ( 0.0000000000000000000, 0.0000000000000000000, 1.000000000000000000 ) ) ;
#10 = EDGE_CURVE ( 'NONE', #228, #21, #180, .T. ) ;
#11 = ORIENTED_EDGE ( 'NONE', *, *, #204, .F. ) ;
#12 = APPLICATION_CONTEXT ( 'configuration controlled 3d designs of mechanical parts and assemblies' ) ;
#13 = EDGE_CURVE ( 'NONE', #203, #128, #161, .T. ) ;
#14 = APPROVAL_ROLE ( '' ) ;
#15 = DIRECTION ( 'NONE',  ( 1.000000000000000000, 0.0000000000000000000, 0.0000000000000000000 ) ) ;
#16 = PERSON_AND_ORGANIZATION ( #115, #82 ) ;
#17 = AXIS2_PLACEMENT_3D ( 'NONE', #170, #79, #220 ) ;
#18 = CARTESIAN_POINT ( 'NONE',  ( -12.49999999999999800, 37.99999999999997900, 1.000000000000000000 ) ) ;
#19 =( NAMED_UNIT ( * ) PLANE_ANGLE_UNIT ( ) SI_UNIT ( $, .RADIAN. ) );
#20 = APPLICATION_CONTEXT ( 'configuration controlled 3d designs of mechanical parts and assemblies' ) ;
#21 = VERTEX_POINT ( 'NONE', #51 ) ;
#22 = CARTESIAN_POINT ( 'NONE',  ( -12.49999999999999800, 37.99999999999997900, 1.000000000000000000 ) ) ;
#23 = VECTOR ( 'NONE', #199, 1000.000000000000000 ) ;
#24 = APPROVAL_ROLE ( '' ) ;
#25 = PLANE ( 'NONE',  #176 ) ;
#26 = CC_DESIGN_PERSON_AND_ORGANIZATION_ASSIGNMENT ( #189, #101, ( #34 ) ) ;
#27 = DATE_AND_TIME ( #141, #163 ) ;
#28 = PLANE ( 'NONE',  #182 ) ;
#29 = EDGE_CURVE ( 'NONE', #128, #194, #219, .T. ) ;
#30 = LINE ( 'NONE', #123, #197 ) ;
#31 = PERSON_AND_ORGANIZATION_ROLE ( 'creator' ) ;
#32 = APPLICATION_PROTOCOL_DEFINITION ( 'international standard', 'config_control_design', 1994, #12 ) ;
#33 = VECTOR ( 'NONE', #80, 1000.000000000000000 ) ;
#34 = PRODUCT_DEFINITION ( 'UNKNOWN', '', #212, #54 ) ;
#35 = CARTESIAN_POINT ( 'NONE',  ( -12.49999999999998900, -38.00000000000002100, 1.000000000000000000 ) ) ;
#36 = DIRECTION ( 'NONE',  ( -1.369518533665900300E-016, 1.000000000000000000, 0.0000000000000000000 ) ) ;
#37 = CARTESIAN_POINT ( 'NONE',  ( -12.49999999999999800, 37.99999999999997900, -1.000000000000000000 ) ) ;
#38 = PERSON_AND_ORGANIZATION_ROLE ( 'design_owner' ) ;
#39 = CARTESIAN_POINT ( 'NONE',  ( 12.50000000000001600, -38.00000000000002100, 1.000000000000000000 ) ) ;
#40 = DIRECTION ( 'NONE',  ( -1.000000000000000000, -0.0000000000000000000, -0.0000000000000000000 ) ) ;
#41 = CARTESIAN_POINT ( 'NONE',  ( -12.49999999999999800, 37.99999999999997900, 1.000000000000000000 ) ) ;
#42 = DIRECTION ( 'NONE',  ( 1.000000000000000000, 0.0000000000000000000, 0.0000000000000000000 ) ) ;
#43 = DIRECTION ( 'NONE',  ( 0.0000000000000000000, -1.000000000000000000, 0.0000000000000000000 ) ) ;
#44 = APPROVAL_DATE_TIME ( #156, #136 ) ;
#45 = MANIFOLD_SOLID_BREP ( 'Boss-Extrude1', #215 ) ;
#46 = DATE_AND_TIME ( #174, #143 ) ;
#47 = ORIENTED_EDGE ( 'NONE', *, *, #49, .F. ) ;
#49 = EDGE_CURVE ( 'NONE', #183, #160, #104, .T. ) ;
#48 = DIRECTION ( 'NONE',  ( 1.826024711554533900E-016, -1.000000000000000000, 0.0000000000000000000 ) ) ;
#50 = VECTOR ( 'NONE', #89, 1000.000000000000000 ) ;
#51 = CARTESIAN_POINT ( 'NONE',  ( 12.50000000000000200, 37.99999999999997900, 1.000000000000000000 ) ) ;
#52 = CALENDAR_DATE ( 2017, 10, 4 ) ;
#53 = EDGE_CURVE ( 'NONE', #21, #154, #62, .T. ) ;
#54 = DESIGN_CONTEXT ( 'detailed design', #20, 'design' ) ;
#55 = CARTESIAN_POINT ( 'NONE',  ( -12.49999999999999800, 37.99999999999997900, -1.000000000000000000 ) ) ;
#56 = DIRECTION ( 'NONE',  ( 0.0000000000000000000, -0.0000000000000000000, -1.000000000000000000 ) ) ;
#57 = CARTESIAN_POINT ( 'NONE',  ( 12.50000000000001600, -38.00000000000002100, 1.000000000000000000 ) ) ;
#58 = ADVANCED_FACE ( 'NONE', ( #211 ), #25, .F. ) ;
#59 = APPLICATION_PROTOCOL_DEFINITION ( 'international standard', 'config_control_design', 1994, #20 ) ;
#60 =( NAMED_UNIT ( * ) SI_UNIT ( $, .STERADIAN. ) SOLID_ANGLE_UNIT ( ) );
#61 = EDGE_LOOP ( 'NONE', ( #222, #47, #100, #99 ) ) ;
#62 = LINE ( 'NONE', #1, #50 ) ;
#63 = CARTESIAN_POINT ( 'NONE',  ( 12.50000000000001600, -38.00000000000002100, -1.000000000000000000 ) ) ;
#64 = ORIENTED_EDGE ( 'NONE', *, *, #70, .T. ) ;
#65 = CARTESIAN_POINT ( 'NONE',  ( 0.0000000000000000000, 0.0000000000000000000, 0.0000000000000000000 ) ) ;
#66 = APPROVAL_PERSON_ORGANIZATION ( #114, #230, #14 ) ;
#67 = PLANE ( 'NONE',  #234 ) ;
#68 = SECURITY_CLASSIFICATION_LEVEL ( 'unclassified' ) ;
#69 = LINE ( 'NONE', #57, #201 ) ;
#70 = EDGE_CURVE ( 'NONE', #183, #203, #145, .T. ) ;
#71 = VECTOR ( 'NONE', #108, 1000.000000000000000 ) ;
#72 = PERSON_AND_ORGANIZATION_ROLE ( 'classification_officer' ) ;
#73 = ADVANCED_FACE ( 'NONE', ( #235 ), #3, .F. ) ;
#74 = PLANE ( 'NONE',  #90 ) ;
#75 = LINE ( 'NONE', #155, #117 ) ;
#76 = CC_DESIGN_PERSON_AND_ORGANIZATION_ASSIGNMENT ( #233, #72, ( #84 ) ) ;
#77 = ORIENTED_EDGE ( 'NONE', *, *, #10, .F. ) ;
#78 = ORIENTED_EDGE ( 'NONE', *, *, #13, .T. ) ;
#79 = DIRECTION ( 'NONE',  ( 0.0000000000000000000, 1.000000000000000000, 0.0000000000000000000 ) ) ;
#80 = DIRECTION ( 'NONE',  ( 1.000000000000000000, 0.0000000000000000000, 0.0000000000000000000 ) ) ;
#81 = DIRECTION ( 'NONE',  ( -1.826024711554533900E-016, 1.000000000000000000, -0.0000000000000000000 ) ) ;
#82 = ORGANIZATION ( 'UNSPECIFIED', 'UNSPECIFIED', '' ) ;
#83 = CALENDAR_DATE ( 2017, 10, 4 ) ;
#84 = SECURITY_CLASSIFICATION ( '', '', #68 ) ;
#85 = ORIENTED_EDGE ( 'NONE', *, *, #29, .F. ) ;
#86 = APPROVAL_ROLE ( '' ) ;
#87 = DIRECTION ( 'NONE',  ( -0.0000000000000000000, -0.0000000000000000000, -1.000000000000000000 ) ) ;
#88 = CC_DESIGN_APPROVAL ( #136, ( #84 ) ) ;
#89 = DIRECTION ( 'NONE',  ( -0.0000000000000000000, -0.0000000000000000000, -1.000000000000000000 ) ) ;
#90 = AXIS2_PLACEMENT_3D ( 'NONE', #6, #225, #42 ) ;
#91 = DIRECTION ( 'NONE',  ( -0.0000000000000000000, 0.0000000000000000000, 1.000000000000000000 ) ) ;
#92 = VECTOR ( 'NONE', #95, 1000.000000000000000 ) ;
#93 = ORIENTED_EDGE ( 'NONE', *, *, #142, .F. ) ;
#94 = DATE_AND_TIME ( #167, #4 ) ;
#95 = DIRECTION ( 'NONE',  ( -1.826024711554533900E-016, 1.000000000000000000, -0.0000000000000000000 ) ) ;
#96 = APPROVAL_STATUS ( 'not_yet_approved' ) ;
#97 = ADVANCED_FACE ( 'NONE', ( #105 ), #74, .F. ) ;
#98 = APPROVAL_PERSON_ORGANIZATION ( #193, #136, #86 ) ;
#99 = ORIENTED_EDGE ( 'NONE', *, *, #53, .T. ) ;
#100 = ORIENTED_EDGE ( 'NONE', *, *, #210, .F. ) ;
#101 = PERSON_AND_ORGANIZATION_ROLE ( 'creator' ) ;
#102 = DIRECTION ( 'NONE',  ( -0.0000000000000000000, -0.0000000000000000000, -1.000000000000000000 ) ) ;
#103 = EDGE_LOOP ( 'NONE', ( #191, #159, #164, #175 ) ) ;
#104 = LINE ( 'NONE', #22, #217 ) ;
#105 = FACE_OUTER_BOUND ( 'NONE', #137, .T. ) ;
#106 = CC_DESIGN_PERSON_AND_ORGANIZATION_ASSIGNMENT ( #16, #31, ( #212 ) ) ;
#107 = ADVANCED_FACE ( 'NONE', ( #221 ), #28, .F. ) ;
#108 = DIRECTION ( 'NONE',  ( -1.000000000000000000, -0.0000000000000000000, -0.0000000000000000000 ) ) ;
#109 = CC_DESIGN_PERSON_AND_ORGANIZATION_ASSIGNMENT ( #149, #38, ( #198 ) ) ;
#110 = CARTESIAN_POINT ( 'NONE',  ( 12.50000000000000200, 37.99999999999997900, 1.000000000000000000 ) ) ;
#111 = ORIENTED_EDGE ( 'NONE', *, *, #210, .T. ) ;
#112 = CARTESIAN_POINT ( 'NONE',  ( 0.0000000000000000000, 0.0000000000000000000, 1.000000000000000000 ) ) ;
#113 = CC_DESIGN_PERSON_AND_ORGANIZATION_ASSIGNMENT ( #144, #190, ( #212 ) ) ;
#114 = PERSON_AND_ORGANIZATION ( #115, #82 ) ;
#115 = PERSON ( 'UNSPECIFIED', 'UNSPECIFIED', 'UNSPECIFIED', ('UNSPECIFIED'), ('UNSPECIFIED'), ('UNSPECIFIED') ) ;
#116 = COORDINATED_UNIVERSAL_TIME_OFFSET ( 5, 0, .BEHIND. ) ;
#117 = VECTOR ( 'NONE', #81, 1000.000000000000000 ) ;
#118 = MECHANICAL_CONTEXT ( 'NONE', #12, 'mechanical' ) ;
#119 = DIRECTION ( 'NONE',  ( -1.000000000000000000, -1.826024711554533900E-016, 0.0000000000000000000 ) ) ;
#120 = COORDINATED_UNIVERSAL_TIME_OFFSET ( 5, 0, .BEHIND. ) ;
#121 = AXIS2_PLACEMENT_3D ( 'NONE', #65, #9, #15 ) ;
#122 = LINE ( 'NONE', #126, #71 ) ;
#123 = CARTESIAN_POINT ( 'NONE',  ( -12.49999999999999800, 37.99999999999997900, 1.000000000000000000 ) ) ;
#124 = CARTESIAN_POINT ( 'NONE',  ( 12.50000000000000200, 37.99999999999997900, -1.000000000000000000 ) ) ;
#125 = CC_DESIGN_APPROVAL ( #151, ( #212 ) ) ;
#126 = CARTESIAN_POINT ( 'NONE',  ( -12.49999999999999800, 37.99999999999997900, -1.000000000000000000 ) ) ;
#127 = APPROVAL_STATUS ( 'not_yet_approved' ) ;
#128 = VERTEX_POINT ( 'NONE', #172 ) ;
#129 = VECTOR ( 'NONE', #102, 1000.000000000000000 ) ;
#130 = DATE_TIME_ROLE ( 'creation_date' ) ;
#131 = CC_DESIGN_DATE_AND_TIME_ASSIGNMENT ( #27, #188, ( #84 ) ) ;
#132 = DIRECTION ( 'NONE',  ( -0.0000000000000000000, -0.0000000000000000000, -1.000000000000000000 ) ) ;
#133 = EDGE_CURVE ( 'NONE', #154, #160, #122, .T. ) ;
#134 = LOCAL_TIME ( 13, 51, 24.00000000000000000, #147 ) ;
#135 = ORIENTED_EDGE ( 'NONE', *, *, #53, .F. ) ;
#136 = APPROVAL ( #96, 'UNSPECIFIED' ) ;
#137 = EDGE_LOOP ( 'NONE', ( #93, #85, #158, #232 ) ) ;
#138 = LOCAL_TIME ( 13, 51, 24.00000000000000000, #187 ) ;
#139 = AXIS2_PLACEMENT_3D ( 'NONE', #41, #150, #36 ) ;
#140 = APPROVAL_STATUS ( 'not_yet_approved' ) ;
#141 = CALENDAR_DATE ( 2017, 10, 4 ) ;
#142 = EDGE_CURVE ( 'NONE', #194, #154, #75, .T. ) ;
#143 = LOCAL_TIME ( 13, 51, 24.00000000000000000, #116 ) ;
#144 = PERSON_AND_ORGANIZATION ( #115, #82 ) ;
#145 = LINE ( 'NONE', #18, #168 ) ;
#146 = CC_DESIGN_DATE_AND_TIME_ASSIGNMENT ( #46, #130, ( #34 ) ) ;
#147 = COORDINATED_UNIVERSAL_TIME_OFFSET ( 5, 0, .BEHIND. ) ;
#148 = PRODUCT_DEFINITION_SHAPE ( 'NONE', 'NONE',  #34 ) ;
#149 = PERSON_AND_ORGANIZATION ( #115, #82 ) ;
#150 = DIRECTION ( 'NONE',  ( 1.000000000000000000, 1.369518533665900300E-016, -0.0000000000000000000 ) ) ;
#151 = APPROVAL ( #140, 'UNSPECIFIED' ) ;
#152 = FACE_OUTER_BOUND ( 'NONE', #177, .T. ) ;
#153 = EDGE_CURVE ( 'NONE', #203, #228, #157, .T. ) ;
#154 = VERTEX_POINT ( 'NONE', #124 ) ;
#155 = CARTESIAN_POINT ( 'NONE',  ( 12.50000000000000200, 37.99999999999997900, -1.000000000000000000 ) ) ;
#156 = DATE_AND_TIME ( #52, #134 ) ;
#157 = LINE ( 'NONE', #179, #237 ) ;
#158 = ORIENTED_EDGE ( 'NONE', *, *, #162, .F. ) ;
#159 = ORIENTED_EDGE ( 'NONE', *, *, #13, .F. ) ;
#160 = VERTEX_POINT ( 'NONE', #55 ) ;
#161 = LINE ( 'NONE', #196, #129 ) ;
#162 = EDGE_CURVE ( 'NONE', #160, #128, #214, .T. ) ;
#163 = LOCAL_TIME ( 13, 51, 24.00000000000000000, #120 ) ;
#164 = ORIENTED_EDGE ( 'NONE', *, *, #70, .F. ) ;
#165 = ADVANCED_FACE ( 'NONE', ( #152 ), #67, .T. ) ;
#166 = PRODUCT_RELATED_PRODUCT_CATEGORY ( 'detail', '', ( #198 ) ) ;
#167 = CALENDAR_DATE ( 2017, 10, 4 ) ;
#168 = VECTOR ( 'NONE', #5, 1000.000000000000000 ) ;
#169 = CARTESIAN_POINT ( 'NONE',  ( -12.49999999999999800, 37.99999999999997900, 1.000000000000000000 ) ) ;
#170 = CARTESIAN_POINT ( 'NONE',  ( -12.49999999999998900, -38.00000000000002100, 1.000000000000000000 ) ) ;
#171 = EDGE_LOOP ( 'NONE', ( #223, #135, #77, #205 ) ) ;
#172 = CARTESIAN_POINT ( 'NONE',  ( -12.49999999999998900, -38.00000000000002100, -1.000000000000000000 ) ) ;
#173 = FACE_OUTER_BOUND ( 'NONE', #200, .T. ) ;
#174 = CALENDAR_DATE ( 2017, 10, 4 ) ;
#175 = ORIENTED_EDGE ( 'NONE', *, *, #49, .T. ) ;
#176 = AXIS2_PLACEMENT_3D ( 'NONE', #213, #43, #56 ) ;
#177 = EDGE_LOOP ( 'NONE', ( #186, #111, #64, #236 ) ) ;
#178 = SHAPE_DEFINITION_REPRESENTATION ( #148, #207 ) ;
#179 = CARTESIAN_POINT ( 'NONE',  ( -12.49999999999998900, -38.00000000000002100, 1.000000000000000000 ) ) ;
#180 = LINE ( 'NONE', #110, #92 ) ;
#181 = ORIENTED_EDGE ( 'NONE', *, *, #29, .T. ) ;
#182 = AXIS2_PLACEMENT_3D ( 'NONE', #231, #119, #48 ) ;
#183 = VERTEX_POINT ( 'NONE', #169 ) ;
#184 = APPROVAL_PERSON_ORGANIZATION ( #195, #151, #24 ) ;
#185 = CARTESIAN_POINT ( 'NONE',  ( -12.49999999999998900, -38.00000000000002100, -1.000000000000000000 ) ) ;
#186 = ORIENTED_EDGE ( 'NONE', *, *, #10, .T. ) ;
#187 = COORDINATED_UNIVERSAL_TIME_OFFSET ( 5, 0, .BEHIND. ) ;
#188 = DATE_TIME_ROLE ( 'classification_date' ) ;
#189 = PERSON_AND_ORGANIZATION ( #115, #82 ) ;
#190 = PERSON_AND_ORGANIZATION_ROLE ( 'design_supplier' ) ;
#191 = ORIENTED_EDGE ( 'NONE', *, *, #162, .T. ) ;
#192 = DIRECTION ( 'NONE',  ( 1.000000000000000000, 0.0000000000000000000, 0.0000000000000000000 ) ) ;
#193 = PERSON_AND_ORGANIZATION ( #115, #82 ) ;
#194 = VERTEX_POINT ( 'NONE', #63 ) ;
#195 = PERSON_AND_ORGANIZATION ( #115, #82 ) ;
#196 = CARTESIAN_POINT ( 'NONE',  ( -12.49999999999998900, -38.00000000000002100, 1.000000000000000000 ) ) ;
#197 = VECTOR ( 'NONE', #40, 1000.000000000000000 ) ;
#198 = PRODUCT ( 'Web Model 31411_46671', 'Web Model 31411_46671', '', ( #118 ) ) ;
#199 = DIRECTION ( 'NONE',  ( 1.369518533665900300E-016, -1.000000000000000000, 0.0000000000000000000 ) ) ;
#200 = EDGE_LOOP ( 'NONE', ( #181, #11, #8, #78 ) ) ;
#201 = VECTOR ( 'NONE', #132, 1000.000000000000000 ) ;
#202 = PLANE ( 'NONE',  #17 ) ;
#203 = VERTEX_POINT ( 'NONE', #35 ) ;
#204 = EDGE_CURVE ( 'NONE', #228, #194, #69, .T. ) ;
#205 = ORIENTED_EDGE ( 'NONE', *, *, #204, .T. ) ;
#206 = UNCERTAINTY_MEASURE_WITH_UNIT (LENGTH_MEASURE( 1.000000000000000100E-005 ), #2, 'distance_accuracy_value', 'NONE');
#207 = ADVANCED_BREP_SHAPE_REPRESENTATION ( 'Web Model 31411_46671', ( #45, #121 ), #218 ) ;
#208 = COORDINATED_UNIVERSAL_TIME_OFFSET ( 5, 0, .BEHIND. ) ;
#209 = CC_DESIGN_APPROVAL ( #230, ( #34 ) ) ;
#210 = EDGE_CURVE ( 'NONE', #21, #183, #30, .T. ) ;
#211 = FACE_OUTER_BOUND ( 'NONE', #61, .T. ) ;
#213 = CARTESIAN_POINT ( 'NONE',  ( -12.49999999999999800, 37.99999999999997900, 1.000000000000000000 ) ) ;
#212 = PRODUCT_DEFINITION_FORMATION_WITH_SPECIFIED_SOURCE ( 'ANY', '', #198, .NOT_KNOWN. ) ;
#214 = LINE ( 'NONE', #37, #23 ) ;
#215 = CLOSED_SHELL ( 'NONE', ( #107, #58, #73, #226, #165, #97 ) ) ;
#216 = APPROVAL_DATE_TIME ( #227, #230 ) ;
#217 = VECTOR ( 'NONE', #87, 1000.000000000000000 ) ;
#218 =( GEOMETRIC_REPRESENTATION_CONTEXT ( 3 ) GLOBAL_UNCERTAINTY_ASSIGNED_CONTEXT ( ( #206 ) ) GLOBAL_UNIT_ASSIGNED_CONTEXT ( ( #2, #19, #60 ) ) REPRESENTATION_CONTEXT ( 'NONE', 'WORKASPACE' ) );
#219 = LINE ( 'NONE', #185, #33 ) ;
#220 = DIRECTION ( 'NONE',  ( 0.0000000000000000000, -0.0000000000000000000, 1.000000000000000000 ) ) ;
#221 = FACE_OUTER_BOUND ( 'NONE', #171, .T. ) ;
#222 = ORIENTED_EDGE ( 'NONE', *, *, #133, .T. ) ;
#223 = ORIENTED_EDGE ( 'NONE', *, *, #142, .T. ) ;
#224 = CC_DESIGN_SECURITY_CLASSIFICATION ( #84, ( #212 ) ) ;
#225 = DIRECTION ( 'NONE',  ( -0.0000000000000000000, 0.0000000000000000000, 1.000000000000000000 ) ) ;
#226 = ADVANCED_FACE ( 'NONE', ( #173 ), #202, .F. ) ;
#227 = DATE_AND_TIME ( #83, #138 ) ;
#228 = VERTEX_POINT ( 'NONE', #39 ) ;
#229 = APPROVAL_DATE_TIME ( #94, #151 ) ;
#230 = APPROVAL ( #127, 'UNSPECIFIED' ) ;
#231 = CARTESIAN_POINT ( 'NONE',  ( 12.50000000000000200, 37.99999999999997900, 1.000000000000000000 ) ) ;
#232 = ORIENTED_EDGE ( 'NONE', *, *, #133, .F. ) ;
#233 = PERSON_AND_ORGANIZATION ( #115, #82 ) ;
#234 = AXIS2_PLACEMENT_3D ( 'NONE', #112, #91, #192 ) ;
#235 = FACE_OUTER_BOUND ( 'NONE', #103, .T. ) ;
#236 = ORIENTED_EDGE ( 'NONE', *, *, #153, .T. ) ;
#237 = VECTOR ( 'NONE', #7, 1000.000000000000000 ) ;
ENDSEC;
END-ISO-10303-21;
