ISO-10303-21;
HEADER;
FILE_DESCRIPTION (( 'STEP AP203' ),
    '1' );
FILE_NAME ('Web Model 47025.STEP',
    '2017-01-31T15:20:13',
    ( '' ),
    ( '' ),
    'SwSTEP 2.0',
    'SolidWorks 2016',
    '' );
FILE_SCHEMA (( 'CONFIG_CONTROL_DESIGN' ));
ENDSEC;

DATA;
#1 = CC_DESIGN_PERSON_AND_ORGANIZATION_ASSIGNMENT ( #231, #163, ( #228 ) ) ;
#2 = AXIS2_PLACEMENT_3D ( 'NONE', #111, #234, #18 ) ;
#3 = PERSON_AND_ORGANIZATION_ROLE ( 'creator' ) ;
#4 = ADVANCED_FACE ( 'NONE', ( #116 ), #15, .F. ) ;
#5 = ORIENTED_EDGE ( 'NONE', *, *, #34, .F. ) ;
#6 = LINE ( 'NONE', #143, #45 ) ;
#7 = EDGE_LOOP ( 'NONE', ( #83, #236, #164, #65 ) ) ;
#8 = PLANE ( 'NONE',  #91 ) ;
#9 = SHAPE_DEFINITION_REPRESENTATION ( #194, #229 ) ;
#10 = CARTESIAN_POINT ( 'NONE',  ( 0.0000000000000000000, 0.0000000000000000000, 3.000000000000000000 ) ) ;
#11 = VECTOR ( 'NONE', #105, 1000.000000000000000 ) ;
#12 = DIRECTION ( 'NONE',  ( -0.0000000000000000000, -0.0000000000000000000, -1.000000000000000000 ) ) ;
#13 = APPROVAL_ROLE ( '' ) ;
#14 = LINE ( 'NONE', #127, #101 ) ;
#15 = PLANE ( 'NONE',  #153 ) ;
#16 =( LENGTH_UNIT ( ) NAMED_UNIT ( * ) SI_UNIT ( .MILLI., .METRE. ) );
#17 = CARTESIAN_POINT ( 'NONE',  ( 0.0000000000000000000, 0.0000000000000000000, 3.000000000000000000 ) ) ;
#18 = DIRECTION ( 'NONE',  ( -1.000000000000000000, 0.0000000000000000000, -0.0000000000000000000 ) ) ;
#19 = DATE_AND_TIME ( #104, #177 ) ;
#20 = ORIENTED_EDGE ( 'NONE', *, *, #203, .F. ) ;
#21 = CC_DESIGN_APPROVAL ( #142, ( #228 ) ) ;
#22 = APPROVAL_DATE_TIME ( #118, #142 ) ;
#23 = LOCAL_TIME ( 10, 20, 13.00000000000000000, #95 ) ;
#24 = ORIENTED_EDGE ( 'NONE', *, *, #223, .T. ) ;
#25 = ORIENTED_EDGE ( 'NONE', *, *, #124, .T. ) ;
#26 = DIRECTION ( 'NONE',  ( -1.000000000000000000, -1.982541115402065100E-016, -0.0000000000000000000 ) ) ;
#27 = CARTESIAN_POINT ( 'NONE',  ( 0.0000000000000000000, 12.49999999999999600, 3.000000000000000000 ) ) ;
#28 = DIRECTION ( 'NONE',  ( 0.0000000000000000000, 1.000000000000000000, 0.0000000000000000000 ) ) ;
#29 = DATE_AND_TIME ( #99, #219 ) ;
#30 = FACE_OUTER_BOUND ( 'NONE', #7, .T. ) ;
#31 =( NAMED_UNIT ( * ) SI_UNIT ( $, .STERADIAN. ) SOLID_ANGLE_UNIT ( ) );
#32 = DIRECTION ( 'NONE',  ( 0.0000000000000000000, -0.0000000000000000000, 1.000000000000000000 ) ) ;
#33 = VECTOR ( 'NONE', #106, 1000.000000000000000 ) ;
#34 = EDGE_CURVE ( 'NONE', #170, #120, #202, .T. ) ;
#35 = CARTESIAN_POINT ( 'NONE',  ( 0.0000000000000000000, 0.0000000000000000000, 3.000000000000000000 ) ) ;
#36 = CARTESIAN_POINT ( 'NONE',  ( 0.0000000000000000000, 0.0000000000000000000, 3.000000000000000000 ) ) ;
#37 = PERSON_AND_ORGANIZATION ( #113, #176 ) ;
#38 = CC_DESIGN_PERSON_AND_ORGANIZATION_ASSIGNMENT ( #224, #50, ( #228 ) ) ;
#39 = ORIENTED_EDGE ( 'NONE', *, *, #235, .T. ) ;
#40 = LINE ( 'NONE', #216, #74 ) ;
#41 = CALENDAR_DATE ( 2017, 31, 1 ) ;
#42 = APPROVAL_DATE_TIME ( #19, #96 ) ;
#43 = PERSON_AND_ORGANIZATION ( #113, #176 ) ;
#44 = MANIFOLD_SOLID_BREP ( 'Extrude1', #190 ) ;
#45 = VECTOR ( 'NONE', #28, 1000.000000000000000 ) ;
#46 = COORDINATED_UNIVERSAL_TIME_OFFSET ( 5, 0, .BEHIND. ) ;
#47 = SECURITY_CLASSIFICATION ( '', '', #195 ) ;
#48 = CARTESIAN_POINT ( 'NONE',  ( 17.50000000000000000, 0.0000000000000000000, 0.0000000000000000000 ) ) ;
#49 = CARTESIAN_POINT ( 'NONE',  ( 0.0000000000000000000, 0.0000000000000000000, 3.000000000000000000 ) ) ;
#50 = PERSON_AND_ORGANIZATION_ROLE ( 'design_supplier' ) ;
#51 = APPLICATION_PROTOCOL_DEFINITION ( 'international standard', 'config_control_design', 1994, #165 ) ;
#52 = VECTOR ( 'NONE', #210, 1000.000000000000000 ) ;
#53 = ORIENTED_EDGE ( 'NONE', *, *, #84, .F. ) ;
#54 =( NAMED_UNIT ( * ) PLANE_ANGLE_UNIT ( ) SI_UNIT ( $, .RADIAN. ) );
#55 = PERSON_AND_ORGANIZATION ( #113, #176 ) ;
#56 = LINE ( 'NONE', #86, #33 ) ;
#57 = EDGE_LOOP ( 'NONE', ( #221, #5, #209, #112 ) ) ;
#58 = LOCAL_TIME ( 10, 20, 13.00000000000000000, #46 ) ;
#59 = EDGE_CURVE ( 'NONE', #201, #170, #123, .T. ) ;
#60 = VERTEX_POINT ( 'NONE', #179 ) ;
#61 = CC_DESIGN_PERSON_AND_ORGANIZATION_ASSIGNMENT ( #206, #3, ( #207 ) ) ;
#62 = ORIENTED_EDGE ( 'NONE', *, *, #59, .T. ) ;
#63 = LINE ( 'NONE', #67, #205 ) ;
#64 = PLANE ( 'NONE',  #132 ) ;
#65 = ORIENTED_EDGE ( 'NONE', *, *, #69, .F. ) ;
#66 = CARTESIAN_POINT ( 'NONE',  ( 17.50000000000000000, 0.0000000000000000000, 3.000000000000000000 ) ) ;
#67 = CARTESIAN_POINT ( 'NONE',  ( 0.0000000000000000000, 12.49999999999999600, 3.000000000000000000 ) ) ;
#68 = CARTESIAN_POINT ( 'NONE',  ( 17.50000000000000000, 0.0000000000000000000, 3.000000000000000000 ) ) ;
#69 = EDGE_CURVE ( 'NONE', #120, #108, #56, .T. ) ;
#70 = APPROVAL_STATUS ( 'not_yet_approved' ) ;
#71 = VERTEX_POINT ( 'NONE', #191 ) ;
#72 = APPROVAL_ROLE ( '' ) ;
#73 = APPLICATION_CONTEXT ( 'configuration controlled 3d designs of mechanical parts and assemblies' ) ;
#74 = VECTOR ( 'NONE', #200, 1000.000000000000000 ) ;
#75 = LOCAL_TIME ( 10, 20, 13.00000000000000000, #156 ) ;
#76 = MECHANICAL_CONTEXT ( 'NONE', #73, 'mechanical' ) ;
#77 = CC_DESIGN_PERSON_AND_ORGANIZATION_ASSIGNMENT ( #141, #182, ( #47 ) ) ;
#78 = CALENDAR_DATE ( 2017, 31, 1 ) ;
#79 = ORIENTED_EDGE ( 'NONE', *, *, #157, .T. ) ;
#80 = LINE ( 'NONE', #215, #121 ) ;
#81 =( GEOMETRIC_REPRESENTATION_CONTEXT ( 3 ) GLOBAL_UNCERTAINTY_ASSIGNED_CONTEXT ( ( #128 ) ) GLOBAL_UNIT_ASSIGNED_CONTEXT ( ( #16, #54, #31 ) ) REPRESENTATION_CONTEXT ( 'NONE', 'WORKASPACE' ) );
#82 = ADVANCED_FACE ( 'NONE', ( #188 ), #193, .F. ) ;
#83 = ORIENTED_EDGE ( 'NONE', *, *, #119, .F. ) ;
#84 = EDGE_CURVE ( 'NONE', #60, #201, #63, .T. ) ;
#85 = CC_DESIGN_DATE_AND_TIME_ASSIGNMENT ( #29, #192, ( #47 ) ) ;
#86 = CARTESIAN_POINT ( 'NONE',  ( 0.0000000000000000000, 0.0000000000000000000, 0.0000000000000000000 ) ) ;
#87 = CARTESIAN_POINT ( 'NONE',  ( 0.0000000000000000000, 0.0000000000000000000, 0.0000000000000000000 ) ) ;
#88 = EDGE_LOOP ( 'NONE', ( #24, #151, #53, #154 ) ) ;
#89 = DIRECTION ( 'NONE',  ( -1.000000000000000000, 0.0000000000000000000, -0.0000000000000000000 ) ) ;
#90 = COORDINATED_UNIVERSAL_TIME_OFFSET ( 5, 0, .BEHIND. ) ;
#91 = AXIS2_PLACEMENT_3D ( 'NONE', #27, #161, #211 ) ;
#92 = APPROVAL_ROLE ( '' ) ;
#93 = APPROVAL_STATUS ( 'not_yet_approved' ) ;
#94 = PLANE ( 'NONE',  #2 ) ;
#95 = COORDINATED_UNIVERSAL_TIME_OFFSET ( 5, 0, .BEHIND. ) ;
#96 = APPROVAL ( #70, 'UNSPECIFIED' ) ;
#97 = CALENDAR_DATE ( 2017, 31, 1 ) ;
#98 = LINE ( 'NONE', #212, #196 ) ;
#99 = CALENDAR_DATE ( 2017, 31, 1 ) ;
#100 = EDGE_CURVE ( 'NONE', #60, #175, #14, .T. ) ;
#101 = VECTOR ( 'NONE', #158, 1000.000000000000000 ) ;
#102 = CARTESIAN_POINT ( 'NONE',  ( 0.0000000000000000000, 0.0000000000000000000, 3.000000000000000000 ) ) ;
#103 = CARTESIAN_POINT ( 'NONE',  ( 0.0000000000000000000, 0.0000000000000000000, 0.0000000000000000000 ) ) ;
#104 = CALENDAR_DATE ( 2017, 31, 1 ) ;
#105 = DIRECTION ( 'NONE',  ( -0.0000000000000000000, -1.000000000000000000, -0.0000000000000000000 ) ) ;
#106 = DIRECTION ( 'NONE',  ( 1.000000000000000000, 0.0000000000000000000, 0.0000000000000000000 ) ) ;
#107 = PERSON_AND_ORGANIZATION_ROLE ( 'design_owner' ) ;
#108 = VERTEX_POINT ( 'NONE', #48 ) ;
#109 = DIRECTION ( 'NONE',  ( 1.000000000000000000, 0.0000000000000000000, 0.0000000000000000000 ) ) ;
#110 = DATE_TIME_ROLE ( 'creation_date' ) ;
#111 = CARTESIAN_POINT ( 'NONE',  ( 0.0000000000000000000, 0.0000000000000000000, 0.0000000000000000000 ) ) ;
#112 = ORIENTED_EDGE ( 'NONE', *, *, #137, .T. ) ;
#113 = PERSON ( 'UNSPECIFIED', 'UNSPECIFIED', 'UNSPECIFIED', ('UNSPECIFIED'), ('UNSPECIFIED'), ('UNSPECIFIED') ) ;
#114 = CC_DESIGN_APPROVAL ( #96, ( #47 ) ) ;
#115 = DATE_AND_TIME ( #97, #75 ) ;
#116 = FACE_OUTER_BOUND ( 'NONE', #57, .T. ) ;
#117 = APPROVAL_PERSON_ORGANIZATION ( #37, #96, #13 ) ;
#118 = DATE_AND_TIME ( #78, #58 ) ;
#119 = EDGE_CURVE ( 'NONE', #71, #120, #152, .T. ) ;
#120 = VERTEX_POINT ( 'NONE', #87 ) ;
#121 = VECTOR ( 'NONE', #169, 1000.000000000000000 ) ;
#122 = EDGE_LOOP ( 'NONE', ( #62, #39, #218, #204 ) ) ;
#123 = LINE ( 'NONE', #10, #11 ) ;
#124 = EDGE_CURVE ( 'NONE', #108, #175, #6, .T. ) ;
#125 = DIRECTION ( 'NONE',  ( -0.0000000000000000000, -0.0000000000000000000, -1.000000000000000000 ) ) ;
#126 = CC_DESIGN_SECURITY_CLASSIFICATION ( #47, ( #228 ) ) ;
#127 = CARTESIAN_POINT ( 'NONE',  ( 17.50000000000000000, 12.50000000000000000, 3.000000000000000000 ) ) ;
#128 = UNCERTAINTY_MEASURE_WITH_UNIT (LENGTH_MEASURE( 1.000000000000000100E-005 ), #16, 'distance_accuracy_value', 'NONE');
#129 = ORIENTED_EDGE ( 'NONE', *, *, #235, .F. ) ;
#130 = APPROVAL_STATUS ( 'not_yet_approved' ) ;
#131 = FACE_OUTER_BOUND ( 'NONE', #213, .T. ) ;
#132 = AXIS2_PLACEMENT_3D ( 'NONE', #66, #134, #144 ) ;
#133 = CC_DESIGN_DATE_AND_TIME_ASSIGNMENT ( #115, #110, ( #207 ) ) ;
#134 = DIRECTION ( 'NONE',  ( -1.000000000000000000, 0.0000000000000000000, 0.0000000000000000000 ) ) ;
#135 = LINE ( 'NONE', #230, #173 ) ;
#136 = ORIENTED_EDGE ( 'NONE', *, *, #69, .T. ) ;
#137 = EDGE_CURVE ( 'NONE', #201, #71, #98, .T. ) ;
#138 = CC_DESIGN_APPROVAL ( #217, ( #207 ) ) ;
#139 = ORIENTED_EDGE ( 'NONE', *, *, #34, .T. ) ;
#140 = VECTOR ( 'NONE', #12, 1000.000000000000000 ) ;
#141 = PERSON_AND_ORGANIZATION ( #113, #176 ) ;
#142 = APPROVAL ( #93, 'UNSPECIFIED' ) ;
#143 = CARTESIAN_POINT ( 'NONE',  ( 17.50000000000000000, 0.0000000000000000000, 0.0000000000000000000 ) ) ;
#144 = DIRECTION ( 'NONE',  ( 0.0000000000000000000, 0.0000000000000000000, 1.000000000000000000 ) ) ;
#145 = PERSON_AND_ORGANIZATION ( #113, #176 ) ;
#146 = DATE_AND_TIME ( #41, #23 ) ;
#147 = DIRECTION ( 'NONE',  ( 0.0000000000000000000, 0.0000000000000000000, 1.000000000000000000 ) ) ;
#148 = APPROVAL_PERSON_ORGANIZATION ( #55, #217, #92 ) ;
#149 = PRODUCT ( 'Web Model 47025', 'Web Model 47025', '', ( #76 ) ) ;
#150 = LINE ( 'NONE', #178, #52 ) ;
#151 = ORIENTED_EDGE ( 'NONE', *, *, #137, .F. ) ;
#152 = LINE ( 'NONE', #103, #237 ) ;
#153 = AXIS2_PLACEMENT_3D ( 'NONE', #35, #166, #199 ) ;
#154 = ORIENTED_EDGE ( 'NONE', *, *, #100, .T. ) ;
#155 = APPROVAL_PERSON_ORGANIZATION ( #145, #142, #72 ) ;
#156 = COORDINATED_UNIVERSAL_TIME_OFFSET ( 5, 0, .BEHIND. ) ;
#157 = EDGE_CURVE ( 'NONE', #172, #108, #150, .T. ) ;
#158 = DIRECTION ( 'NONE',  ( -0.0000000000000000000, -0.0000000000000000000, -1.000000000000000000 ) ) ;
#159 = CC_DESIGN_PERSON_AND_ORGANIZATION_ASSIGNMENT ( #43, #107, ( #149 ) ) ;
#160 = COORDINATED_UNIVERSAL_TIME_OFFSET ( 5, 0, .BEHIND. ) ;
#161 = DIRECTION ( 'NONE',  ( 1.982541115402065100E-016, -1.000000000000000000, 0.0000000000000000000 ) ) ;
#162 = DIRECTION ( 'NONE',  ( -0.0000000000000000000, -1.000000000000000000, -0.0000000000000000000 ) ) ;
#163 = PERSON_AND_ORGANIZATION_ROLE ( 'creator' ) ;
#164 = ORIENTED_EDGE ( 'NONE', *, *, #124, .F. ) ;
#165 = APPLICATION_CONTEXT ( 'configuration controlled 3d designs of mechanical parts and assemblies' ) ;
#166 = DIRECTION ( 'NONE',  ( 1.000000000000000000, 0.0000000000000000000, 0.0000000000000000000 ) ) ;
#167 = DESIGN_CONTEXT ( 'detailed design', #165, 'design' ) ;
#168 = APPLICATION_PROTOCOL_DEFINITION ( 'international standard', 'config_control_design', 1994, #73 ) ;
#169 = DIRECTION ( 'NONE',  ( -1.000000000000000000, -1.982541115402065100E-016, -0.0000000000000000000 ) ) ;
#170 = VERTEX_POINT ( 'NONE', #102 ) ;
#171 = AXIS2_PLACEMENT_3D ( 'NONE', #36, #184, #32 ) ;
#172 = VERTEX_POINT ( 'NONE', #68 ) ;
#173 = VECTOR ( 'NONE', #232, 1000.000000000000000 ) ;
#174 = ADVANCED_FACE ( 'NONE', ( #186 ), #8, .F. ) ;
#175 = VERTEX_POINT ( 'NONE', #226 ) ;
#176 = ORGANIZATION ( 'UNSPECIFIED', 'UNSPECIFIED', '' ) ;
#177 = LOCAL_TIME ( 10, 20, 13.00000000000000000, #160 ) ;
#178 = CARTESIAN_POINT ( 'NONE',  ( 17.50000000000000000, 0.0000000000000000000, 3.000000000000000000 ) ) ;
#179 = CARTESIAN_POINT ( 'NONE',  ( 17.50000000000000000, 12.50000000000000000, 3.000000000000000000 ) ) ;
#180 = ORIENTED_EDGE ( 'NONE', *, *, #157, .F. ) ;
#181 = AXIS2_PLACEMENT_3D ( 'NONE', #49, #227, #89 ) ;
#182 = PERSON_AND_ORGANIZATION_ROLE ( 'classification_officer' ) ;
#183 = CARTESIAN_POINT ( 'NONE',  ( 0.0000000000000000000, 12.49999999999999600, 3.000000000000000000 ) ) ;
#184 = DIRECTION ( 'NONE',  ( 0.0000000000000000000, 1.000000000000000000, 0.0000000000000000000 ) ) ;
#185 = AXIS2_PLACEMENT_3D ( 'NONE', #214, #147, #109 ) ;
#186 = FACE_OUTER_BOUND ( 'NONE', #88, .T. ) ;
#187 = ADVANCED_FACE ( 'NONE', ( #233 ), #64, .F. ) ;
#188 = FACE_OUTER_BOUND ( 'NONE', #122, .T. ) ;
#189 = PRODUCT_RELATED_PRODUCT_CATEGORY ( 'detail', '', ( #149 ) ) ;
#190 = CLOSED_SHELL ( 'NONE', ( #4, #222, #187, #174, #82, #220 ) ) ;
#191 = CARTESIAN_POINT ( 'NONE',  ( 0.0000000000000000000, 12.49999999999999600, 0.0000000000000000000 ) ) ;
#192 = DATE_TIME_ROLE ( 'classification_date' ) ;
#193 = PLANE ( 'NONE',  #181 ) ;
#194 = PRODUCT_DEFINITION_SHAPE ( 'NONE', 'NONE',  #207 ) ;
#195 = SECURITY_CLASSIFICATION_LEVEL ( 'unclassified' ) ;
#196 = VECTOR ( 'NONE', #125, 1000.000000000000000 ) ;
#197 = ORIENTED_EDGE ( 'NONE', *, *, #100, .F. ) ;
#198 = PLANE ( 'NONE',  #171 ) ;
#199 = DIRECTION ( 'NONE',  ( 0.0000000000000000000, 0.0000000000000000000, -1.000000000000000000 ) ) ;
#200 = DIRECTION ( 'NONE',  ( 0.0000000000000000000, 1.000000000000000000, 0.0000000000000000000 ) ) ;
#201 = VERTEX_POINT ( 'NONE', #183 ) ;
#202 = LINE ( 'NONE', #17, #140 ) ;
#203 = EDGE_CURVE ( 'NONE', #172, #60, #40, .T. ) ;
#204 = ORIENTED_EDGE ( 'NONE', *, *, #84, .T. ) ;
#205 = VECTOR ( 'NONE', #26, 1000.000000000000000 ) ;
#206 = PERSON_AND_ORGANIZATION ( #113, #176 ) ;
#207 = PRODUCT_DEFINITION ( 'UNKNOWN', '', #228, #167 ) ;
#208 = EDGE_LOOP ( 'NONE', ( #25, #197, #20, #79 ) ) ;
#209 = ORIENTED_EDGE ( 'NONE', *, *, #59, .F. ) ;
#210 = DIRECTION ( 'NONE',  ( -0.0000000000000000000, -0.0000000000000000000, -1.000000000000000000 ) ) ;
#211 = DIRECTION ( 'NONE',  ( 1.000000000000000000, 1.982541115402065100E-016, 0.0000000000000000000 ) ) ;
#212 = CARTESIAN_POINT ( 'NONE',  ( 0.0000000000000000000, 12.49999999999999600, 3.000000000000000000 ) ) ;
#213 = EDGE_LOOP ( 'NONE', ( #136, #180, #129, #139 ) ) ;
#214 = CARTESIAN_POINT ( 'NONE',  ( 0.0000000000000000000, 0.0000000000000000000, 0.0000000000000000000 ) ) ;
#215 = CARTESIAN_POINT ( 'NONE',  ( 0.0000000000000000000, 12.49999999999999600, 0.0000000000000000000 ) ) ;
#216 = CARTESIAN_POINT ( 'NONE',  ( 17.50000000000000000, 0.0000000000000000000, 3.000000000000000000 ) ) ;
#217 = APPROVAL ( #130, 'UNSPECIFIED' ) ;
#218 = ORIENTED_EDGE ( 'NONE', *, *, #203, .T. ) ;
#219 = LOCAL_TIME ( 10, 20, 13.00000000000000000, #90 ) ;
#220 = ADVANCED_FACE ( 'NONE', ( #30 ), #94, .T. ) ;
#221 = ORIENTED_EDGE ( 'NONE', *, *, #119, .T. ) ;
#222 = ADVANCED_FACE ( 'NONE', ( #131 ), #198, .F. ) ;
#223 = EDGE_CURVE ( 'NONE', #175, #71, #80, .T. ) ;
#224 = PERSON_AND_ORGANIZATION ( #113, #176 ) ;
#225 = APPROVAL_DATE_TIME ( #146, #217 ) ;
#226 = CARTESIAN_POINT ( 'NONE',  ( 17.50000000000000000, 12.50000000000000000, 0.0000000000000000000 ) ) ;
#227 = DIRECTION ( 'NONE',  ( 0.0000000000000000000, 0.0000000000000000000, -1.000000000000000000 ) ) ;
#228 = PRODUCT_DEFINITION_FORMATION_WITH_SPECIFIED_SOURCE ( 'ANY', '', #149, .NOT_KNOWN. ) ;
#229 = ADVANCED_BREP_SHAPE_REPRESENTATION ( 'Web Model 47025', ( #44, #185 ), #81 ) ;
#230 = CARTESIAN_POINT ( 'NONE',  ( 0.0000000000000000000, 0.0000000000000000000, 3.000000000000000000 ) ) ;
#231 = PERSON_AND_ORGANIZATION ( #113, #176 ) ;
#232 = DIRECTION ( 'NONE',  ( 1.000000000000000000, 0.0000000000000000000, 0.0000000000000000000 ) ) ;
#233 = FACE_OUTER_BOUND ( 'NONE', #208, .T. ) ;
#234 = DIRECTION ( 'NONE',  ( 0.0000000000000000000, 0.0000000000000000000, -1.000000000000000000 ) ) ;
#235 = EDGE_CURVE ( 'NONE', #170, #172, #135, .T. ) ;
#236 = ORIENTED_EDGE ( 'NONE', *, *, #223, .F. ) ;
#237 = VECTOR ( 'NONE', #162, 1000.000000000000000 ) ;
ENDSEC;
END-ISO-10303-21;
