ISO-10303-21;
HEADER;
FILE_DESCRIPTION (( 'STEP AP203' ),
    '1' );
FILE_NAME ('Web Model 48200_36972.step',
    '2019-01-07T15:25:01',
    ( '' ),
    ( '' ),
    'SwSTEP 2.0',
    'SolidWorks 2016',
    '' );
FILE_SCHEMA (( 'CONFIG_CONTROL_DESIGN' ));
ENDSEC;

DATA;
#1 = CARTESIAN_POINT ( 'NONE',  ( 6.250000000000006200, -6.249999999999984900, -1.000000000000000000 ) ) ;
#2 = UNCERTAINTY_MEASURE_WITH_UNIT (LENGTH_MEASURE( 1.000000000000000100E-005 ), #41, 'distance_accuracy_value', 'NONE');
#3 = PRODUCT_RELATED_PRODUCT_CATEGORY ( 'detail', '', ( #32 ) ) ;
#4 = DATE_AND_TIME ( #226, #53 ) ;
#5 = ORIENTED_EDGE ( 'NONE', *, *, #74, .F. ) ;
#6 = PLANE ( 'NONE',  #225 ) ;
#7 = DIRECTION ( 'NONE',  ( -1.000000000000000000, 0.0000000000000000000, 0.0000000000000000000 ) ) ;
#8 = VERTEX_POINT ( 'NONE', #110 ) ;
#9 = PRODUCT_DEFINITION_SHAPE ( 'NONE', 'NONE',  #158 ) ;
#10 = DIRECTION ( 'NONE',  ( -1.000000000000000000, -0.0000000000000000000, -0.0000000000000000000 ) ) ;
#11 = DIRECTION ( 'NONE',  ( 0.0000000000000000000, -1.000000000000000000, 0.0000000000000000000 ) ) ;
#12 =( NAMED_UNIT ( * ) PLANE_ANGLE_UNIT ( ) SI_UNIT ( $, .RADIAN. ) );
#13 = VECTOR ( 'NONE', #117, 1000.000000000000000 ) ;
#14 = PERSON_AND_ORGANIZATION_ROLE ( 'creator' ) ;
#15 = APPLICATION_CONTEXT ( 'configuration controlled 3d designs of mechanical parts and assemblies' ) ;
#16 = APPROVAL ( #29, 'UNSPECIFIED' ) ;
#17 = LINE ( 'NONE', #115, #120 ) ;
#18 = FACE_OUTER_BOUND ( 'NONE', #160, .T. ) ;
#19 =( GEOMETRIC_REPRESENTATION_CONTEXT ( 3 ) GLOBAL_UNCERTAINTY_ASSIGNED_CONTEXT ( ( #2 ) ) GLOBAL_UNIT_ASSIGNED_CONTEXT ( ( #41, #12, #60 ) ) REPRESENTATION_CONTEXT ( 'NONE', 'WORKASPACE' ) );
#20 = CALENDAR_DATE ( 2019, 7, 1 ) ;
#21 = VERTEX_POINT ( 'NONE', #1 ) ;
#22 = PLANE ( 'NONE',  #131 ) ;
#23 = CARTESIAN_POINT ( 'NONE',  ( 6.250000000000006200, 6.250000000000012400, -1.000000000000000000 ) ) ;
#24 = CARTESIAN_POINT ( 'NONE',  ( 0.0000000000000000000, 0.0000000000000000000, 1.000000000000000000 ) ) ;
#25 = DIRECTION ( 'NONE',  ( -1.000000000000000000, 0.0000000000000000000, -0.0000000000000000000 ) ) ;
#26 = EDGE_LOOP ( 'NONE', ( #183, #192, #48, #123 ) ) ;
#27 = APPROVAL_ROLE ( '' ) ;
#28 = ADVANCED_FACE ( 'NONE', ( #163 ), #73, .F. ) ;
#29 = APPROVAL_STATUS ( 'not_yet_approved' ) ;
#30 = EDGE_CURVE ( 'NONE', #99, #21, #17, .T. ) ;
#31 = LOCAL_TIME ( 10, 25, 1.000000000000000000, #47 ) ;
#32 = PRODUCT ( 'Web Model 48200_36972', 'Web Model 48200_36972', '', ( #63 ) ) ;
#33 = APPROVAL_PERSON_ORGANIZATION ( #86, #109, #190 ) ;
#34 = CLOSED_SHELL ( 'NONE', ( #122, #175, #28, #235, #171, #45 ) ) ;
#35 = CC_DESIGN_APPROVAL ( #109, ( #143 ) ) ;
#36 = DIRECTION ( 'NONE',  ( -1.000000000000000000, -0.0000000000000000000, -0.0000000000000000000 ) ) ;
#37 = VECTOR ( 'NONE', #101, 1000.000000000000000 ) ;
#38 = EDGE_LOOP ( 'NONE', ( #142, #106, #5, #126 ) ) ;
#39 = CARTESIAN_POINT ( 'NONE',  ( -6.249999999999994700, 6.250000000000012400, 1.000000000000000000 ) ) ;
#40 = DIRECTION ( 'NONE',  ( 0.0000000000000000000, -0.0000000000000000000, 1.000000000000000000 ) ) ;
#41 =( LENGTH_UNIT ( ) NAMED_UNIT ( * ) SI_UNIT ( .MILLI., .METRE. ) );
#42 = PERSON_AND_ORGANIZATION ( #178, #56 ) ;
#43 = CARTESIAN_POINT ( 'NONE',  ( 6.250000000000006200, -6.249999999999984900, 1.000000000000000000 ) ) ;
#44 = CARTESIAN_POINT ( 'NONE',  ( -6.249999999999994700, 6.250000000000012400, -1.000000000000000000 ) ) ;
#45 = ADVANCED_FACE ( 'NONE', ( #108 ), #75, .T. ) ;
#46 = APPROVAL_STATUS ( 'not_yet_approved' ) ;
#47 = COORDINATED_UNIVERSAL_TIME_OFFSET ( 5, 0, .BEHIND. ) ;
#48 = ORIENTED_EDGE ( 'NONE', *, *, #65, .T. ) ;
#49 = EDGE_CURVE ( 'NONE', #155, #149, #67, .T. ) ;
#50 = DIRECTION ( 'NONE',  ( 0.0000000000000000000, 0.0000000000000000000, 1.000000000000000000 ) ) ;
#51 = LINE ( 'NONE', #148, #177 ) ;
#52 = CC_DESIGN_PERSON_AND_ORGANIZATION_ASSIGNMENT ( #82, #90, ( #32 ) ) ;
#53 = LOCAL_TIME ( 10, 25, 1.000000000000000000, #146 ) ;
#54 = ORIENTED_EDGE ( 'NONE', *, *, #65, .F. ) ;
#55 = APPROVAL ( #138, 'UNSPECIFIED' ) ;
#56 = ORGANIZATION ( 'UNSPECIFIED', 'UNSPECIFIED', '' ) ;
#57 = ORIENTED_EDGE ( 'NONE', *, *, #184, .F. ) ;
#58 = EDGE_CURVE ( 'NONE', #227, #21, #51, .T. ) ;
#59 = CARTESIAN_POINT ( 'NONE',  ( 6.250000000000006200, 6.250000000000012400, 1.000000000000000000 ) ) ;
#60 =( NAMED_UNIT ( * ) SI_UNIT ( $, .STERADIAN. ) SOLID_ANGLE_UNIT ( ) );
#61 = DIRECTION ( 'NONE',  ( -0.0000000000000000000, -0.0000000000000000000, -1.000000000000000000 ) ) ;
#62 = ORIENTED_EDGE ( 'NONE', *, *, #64, .F. ) ;
#63 = MECHANICAL_CONTEXT ( 'NONE', #15, 'mechanical' ) ;
#64 = EDGE_CURVE ( 'NONE', #155, #102, #205, .T. ) ;
#65 = EDGE_CURVE ( 'NONE', #149, #70, #133, .T. ) ;
#66 = LINE ( 'NONE', #79, #37 ) ;
#67 = LINE ( 'NONE', #114, #147 ) ;
#68 = EDGE_CURVE ( 'NONE', #102, #8, #97, .T. ) ;
#69 = VECTOR ( 'NONE', #151, 1000.000000000000000 ) ;
#70 = VERTEX_POINT ( 'NONE', #100 ) ;
#71 = DIRECTION ( 'NONE',  ( 0.0000000000000000000, 0.0000000000000000000, -1.000000000000000000 ) ) ;
#72 = FACE_OUTER_BOUND ( 'NONE', #166, .T. ) ;
#73 = PLANE ( 'NONE',  #103 ) ;
#74 = EDGE_CURVE ( 'NONE', #70, #99, #218, .T. ) ;
#75 = PLANE ( 'NONE',  #222 ) ;
#76 = CALENDAR_DATE ( 2019, 7, 1 ) ;
#77 = ORIENTED_EDGE ( 'NONE', *, *, #195, .F. ) ;
#78 = CARTESIAN_POINT ( 'NONE',  ( -6.249999999999994700, 6.250000000000012400, 1.000000000000000000 ) ) ;
#79 = CARTESIAN_POINT ( 'NONE',  ( 6.250000000000006200, -6.249999999999984900, -1.000000000000000000 ) ) ;
#80 = DESIGN_CONTEXT ( 'detailed design', #234, 'design' ) ;
#81 = CARTESIAN_POINT ( 'NONE',  ( 6.250000000000006200, -6.249999999999984900, 1.000000000000000000 ) ) ;
#82 = PERSON_AND_ORGANIZATION ( #178, #56 ) ;
#83 = EDGE_CURVE ( 'NONE', #21, #102, #66, .T. ) ;
#84 = APPROVAL_ROLE ( '' ) ;
#85 = PERSON_AND_ORGANIZATION_ROLE ( 'creator' ) ;
#86 = PERSON_AND_ORGANIZATION ( #178, #56 ) ;
#87 = ORIENTED_EDGE ( 'NONE', *, *, #208, .T. ) ;
#88 = CARTESIAN_POINT ( 'NONE',  ( 0.0000000000000000000, 0.0000000000000000000, 0.0000000000000000000 ) ) ;
#89 = CC_DESIGN_PERSON_AND_ORGANIZATION_ASSIGNMENT ( #180, #105, ( #143 ) ) ;
#90 = PERSON_AND_ORGANIZATION_ROLE ( 'design_owner' ) ;
#91 = COORDINATED_UNIVERSAL_TIME_OFFSET ( 5, 0, .BEHIND. ) ;
#92 = COORDINATED_UNIVERSAL_TIME_OFFSET ( 5, 0, .BEHIND. ) ;
#93 = CC_DESIGN_APPROVAL ( #16, ( #158 ) ) ;
#94 = ADVANCED_BREP_SHAPE_REPRESENTATION ( 'Web Model 48200_36972', ( #174, #233 ), #19 ) ;
#95 = APPROVAL_DATE_TIME ( #216, #109 ) ;
#96 = CARTESIAN_POINT ( 'NONE',  ( -6.249999999999994700, -6.249999999999984900, 1.000000000000000000 ) ) ;
#97 = LINE ( 'NONE', #44, #237 ) ;
#98 = CC_DESIGN_DATE_AND_TIME_ASSIGNMENT ( #154, #215, ( #124 ) ) ;
#99 = VERTEX_POINT ( 'NONE', #43 ) ;
#100 = CARTESIAN_POINT ( 'NONE',  ( -6.249999999999994700, -6.249999999999984900, 1.000000000000000000 ) ) ;
#101 = DIRECTION ( 'NONE',  ( 0.0000000000000000000, 1.000000000000000000, 0.0000000000000000000 ) ) ;
#102 = VERTEX_POINT ( 'NONE', #23 ) ;
#103 = AXIS2_PLACEMENT_3D ( 'NONE', #96, #224, #145 ) ;
#104 = ORIENTED_EDGE ( 'NONE', *, *, #83, .F. ) ;
#105 = PERSON_AND_ORGANIZATION_ROLE ( 'design_supplier' ) ;
#106 = ORIENTED_EDGE ( 'NONE', *, *, #30, .F. ) ;
#107 = CC_DESIGN_PERSON_AND_ORGANIZATION_ASSIGNMENT ( #191, #85, ( #158 ) ) ;
#108 = FACE_OUTER_BOUND ( 'NONE', #207, .T. ) ;
#109 = APPROVAL ( #46, 'UNSPECIFIED' ) ;
#110 = CARTESIAN_POINT ( 'NONE',  ( -6.249999999999994700, 6.250000000000012400, -1.000000000000000000 ) ) ;
#111 = LOCAL_TIME ( 10, 25, 1.000000000000000000, #91 ) ;
#112 = FACE_OUTER_BOUND ( 'NONE', #26, .T. ) ;
#113 = ORIENTED_EDGE ( 'NONE', *, *, #64, .T. ) ;
#114 = CARTESIAN_POINT ( 'NONE',  ( -6.249999999999994700, 6.250000000000012400, 1.000000000000000000 ) ) ;
#115 = CARTESIAN_POINT ( 'NONE',  ( 6.250000000000006200, -6.249999999999984900, 1.000000000000000000 ) ) ;
#116 = ORIENTED_EDGE ( 'NONE', *, *, #184, .T. ) ;
#117 = DIRECTION ( 'NONE',  ( -0.0000000000000000000, -0.0000000000000000000, -1.000000000000000000 ) ) ;
#118 = CARTESIAN_POINT ( 'NONE',  ( -6.249999999999994700, 6.250000000000012400, 1.000000000000000000 ) ) ;
#119 = VECTOR ( 'NONE', #134, 1000.000000000000000 ) ;
#120 = VECTOR ( 'NONE', #161, 1000.000000000000000 ) ;
#121 = DATE_AND_TIME ( #76, #31 ) ;
#122 = ADVANCED_FACE ( 'NONE', ( #72 ), #210, .F. ) ;
#123 = ORIENTED_EDGE ( 'NONE', *, *, #74, .T. ) ;
#124 = SECURITY_CLASSIFICATION ( '', '', #137 ) ;
#125 = COORDINATED_UNIVERSAL_TIME_OFFSET ( 5, 0, .BEHIND. ) ;
#126 = ORIENTED_EDGE ( 'NONE', *, *, #195, .T. ) ;
#127 = LINE ( 'NONE', #118, #157 ) ;
#128 = CC_DESIGN_APPROVAL ( #55, ( #124 ) ) ;
#129 = SHAPE_DEFINITION_REPRESENTATION ( #9, #94 ) ;
#130 = PLANE ( 'NONE',  #152 ) ;
#131 = AXIS2_PLACEMENT_3D ( 'NONE', #39, #11, #168 ) ;
#132 = CARTESIAN_POINT ( 'NONE',  ( -6.249999999999994700, -6.249999999999984900, 1.000000000000000000 ) ) ;
#133 = LINE ( 'NONE', #229, #182 ) ;
#134 = DIRECTION ( 'NONE',  ( -0.0000000000000000000, -1.000000000000000000, -0.0000000000000000000 ) ) ;
#135 = DIRECTION ( 'NONE',  ( 1.000000000000000000, 0.0000000000000000000, 0.0000000000000000000 ) ) ;
#136 = VECTOR ( 'NONE', #189, 1000.000000000000000 ) ;
#137 = SECURITY_CLASSIFICATION_LEVEL ( 'unclassified' ) ;
#138 = APPROVAL_STATUS ( 'not_yet_approved' ) ;
#139 = APPROVAL_DATE_TIME ( #4, #16 ) ;
#140 = CC_DESIGN_SECURITY_CLASSIFICATION ( #124, ( #143 ) ) ;
#141 = LINE ( 'NONE', #81, #69 ) ;
#142 = ORIENTED_EDGE ( 'NONE', *, *, #58, .T. ) ;
#143 = PRODUCT_DEFINITION_FORMATION_WITH_SPECIFIED_SOURCE ( 'ANY', '', #32, .NOT_KNOWN. ) ;
#144 = EDGE_LOOP ( 'NONE', ( #116, #77, #54, #87 ) ) ;
#145 = DIRECTION ( 'NONE',  ( 0.0000000000000000000, 0.0000000000000000000, -1.000000000000000000 ) ) ;
#146 = COORDINATED_UNIVERSAL_TIME_OFFSET ( 5, 0, .BEHIND. ) ;
#147 = VECTOR ( 'NONE', #36, 1000.000000000000000 ) ;
#148 = CARTESIAN_POINT ( 'NONE',  ( -6.249999999999994700, -6.249999999999984900, -1.000000000000000000 ) ) ;
#149 = VERTEX_POINT ( 'NONE', #78 ) ;
#150 = DIRECTION ( 'NONE',  ( 0.0000000000000000000, 0.0000000000000000000, -1.000000000000000000 ) ) ;
#151 = DIRECTION ( 'NONE',  ( 0.0000000000000000000, 1.000000000000000000, 0.0000000000000000000 ) ) ;
#152 = AXIS2_PLACEMENT_3D ( 'NONE', #185, #206, #40 ) ;
#153 = DIRECTION ( 'NONE',  ( 1.000000000000000000, 0.0000000000000000000, 0.0000000000000000000 ) ) ;
#154 = DATE_AND_TIME ( #169, #231 ) ;
#155 = VERTEX_POINT ( 'NONE', #232 ) ;
#156 = APPROVAL_PERSON_ORGANIZATION ( #186, #55, #84 ) ;
#157 = VECTOR ( 'NONE', #61, 1000.000000000000000 ) ;
#158 = PRODUCT_DEFINITION ( 'UNKNOWN', '', #143, #80 ) ;
#159 = LINE ( 'NONE', #165, #119 ) ;
#160 = EDGE_LOOP ( 'NONE', ( #200, #173, #197, #113 ) ) ;
#161 = DIRECTION ( 'NONE',  ( -0.0000000000000000000, -0.0000000000000000000, -1.000000000000000000 ) ) ;
#162 = VECTOR ( 'NONE', #135, 1000.000000000000000 ) ;
#163 = FACE_OUTER_BOUND ( 'NONE', #144, .T. ) ;
#164 = PERSON_AND_ORGANIZATION ( #178, #56 ) ;
#165 = CARTESIAN_POINT ( 'NONE',  ( -6.249999999999994700, -6.249999999999984900, -1.000000000000000000 ) ) ;
#166 = EDGE_LOOP ( 'NONE', ( #221, #62, #188, #202 ) ) ;
#167 = CARTESIAN_POINT ( 'NONE',  ( -6.249999999999994700, -6.249999999999984900, -1.000000000000000000 ) ) ;
#168 = DIRECTION ( 'NONE',  ( 0.0000000000000000000, -0.0000000000000000000, -1.000000000000000000 ) ) ;
#169 = CALENDAR_DATE ( 2019, 7, 1 ) ;
#170 = CARTESIAN_POINT ( 'NONE',  ( -6.249999999999994700, -6.249999999999984900, 1.000000000000000000 ) ) ;
#171 = ADVANCED_FACE ( 'NONE', ( #112 ), #6, .F. ) ;
#172 = APPLICATION_PROTOCOL_DEFINITION ( 'international standard', 'config_control_design', 1994, #15 ) ;
#173 = ORIENTED_EDGE ( 'NONE', *, *, #208, .F. ) ;
#174 = MANIFOLD_SOLID_BREP ( 'Boss-Extrude1', #34 ) ;
#175 = ADVANCED_FACE ( 'NONE', ( #18 ), #22, .F. ) ;
#176 = APPROVAL_DATE_TIME ( #204, #55 ) ;
#177 = VECTOR ( 'NONE', #187, 1000.000000000000000 ) ;
#178 = PERSON ( 'UNSPECIFIED', 'UNSPECIFIED', 'UNSPECIFIED', ('UNSPECIFIED'), ('UNSPECIFIED'), ('UNSPECIFIED') ) ;
#179 = CC_DESIGN_DATE_AND_TIME_ASSIGNMENT ( #121, #214, ( #158 ) ) ;
#180 = PERSON_AND_ORGANIZATION ( #178, #56 ) ;
#181 = CARTESIAN_POINT ( 'NONE',  ( 0.0000000000000000000, 0.0000000000000000000, -1.000000000000000000 ) ) ;
#182 = VECTOR ( 'NONE', #228, 1000.000000000000000 ) ;
#183 = ORIENTED_EDGE ( 'NONE', *, *, #201, .T. ) ;
#184 = EDGE_CURVE ( 'NONE', #8, #227, #159, .T. ) ;
#185 = CARTESIAN_POINT ( 'NONE',  ( -6.249999999999994700, -6.249999999999984900, 1.000000000000000000 ) ) ;
#186 = PERSON_AND_ORGANIZATION ( #178, #56 ) ;
#187 = DIRECTION ( 'NONE',  ( 1.000000000000000000, 0.0000000000000000000, 0.0000000000000000000 ) ) ;
#188 = ORIENTED_EDGE ( 'NONE', *, *, #201, .F. ) ;
#189 = DIRECTION ( 'NONE',  ( -0.0000000000000000000, -0.0000000000000000000, -1.000000000000000000 ) ) ;
#190 = APPROVAL_ROLE ( '' ) ;
#191 = PERSON_AND_ORGANIZATION ( #178, #56 ) ;
#192 = ORIENTED_EDGE ( 'NONE', *, *, #49, .T. ) ;
#193 = APPLICATION_PROTOCOL_DEFINITION ( 'international standard', 'config_control_design', 1994, #234 ) ;
#194 = PERSON_AND_ORGANIZATION_ROLE ( 'classification_officer' ) ;
#195 = EDGE_CURVE ( 'NONE', #70, #227, #212, .T. ) ;
#196 = CALENDAR_DATE ( 2019, 7, 1 ) ;
#197 = ORIENTED_EDGE ( 'NONE', *, *, #49, .F. ) ;
#198 = AXIS2_PLACEMENT_3D ( 'NONE', #230, #7, #209 ) ;
#199 = APPROVAL_PERSON_ORGANIZATION ( #164, #16, #27 ) ;
#200 = ORIENTED_EDGE ( 'NONE', *, *, #68, .T. ) ;
#201 = EDGE_CURVE ( 'NONE', #99, #155, #141, .T. ) ;
#202 = ORIENTED_EDGE ( 'NONE', *, *, #30, .T. ) ;
#203 = DIRECTION ( 'NONE',  ( -1.000000000000000000, 0.0000000000000000000, -0.0000000000000000000 ) ) ;
#204 = DATE_AND_TIME ( #196, #111 ) ;
#205 = LINE ( 'NONE', #59, #13 ) ;
#206 = DIRECTION ( 'NONE',  ( 0.0000000000000000000, 1.000000000000000000, 0.0000000000000000000 ) ) ;
#207 = EDGE_LOOP ( 'NONE', ( #104, #213, #57, #217 ) ) ;
#208 = EDGE_CURVE ( 'NONE', #149, #8, #127, .T. ) ;
#209 = DIRECTION ( 'NONE',  ( 0.0000000000000000000, 0.0000000000000000000, 1.000000000000000000 ) ) ;
#210 = PLANE ( 'NONE',  #198 ) ;
#211 = CC_DESIGN_PERSON_AND_ORGANIZATION_ASSIGNMENT ( #223, #194, ( #124 ) ) ;
#212 = LINE ( 'NONE', #170, #136 ) ;
#213 = ORIENTED_EDGE ( 'NONE', *, *, #58, .F. ) ;
#214 = DATE_TIME_ROLE ( 'creation_date' ) ;
#215 = DATE_TIME_ROLE ( 'classification_date' ) ;
#216 = DATE_AND_TIME ( #20, #220 ) ;
#217 = ORIENTED_EDGE ( 'NONE', *, *, #68, .F. ) ;
#218 = LINE ( 'NONE', #132, #162 ) ;
#219 = CC_DESIGN_PERSON_AND_ORGANIZATION_ASSIGNMENT ( #42, #14, ( #143 ) ) ;
#220 = LOCAL_TIME ( 10, 25, 1.000000000000000000, #125 ) ;
#221 = ORIENTED_EDGE ( 'NONE', *, *, #83, .T. ) ;
#222 = AXIS2_PLACEMENT_3D ( 'NONE', #181, #71, #203 ) ;
#223 = PERSON_AND_ORGANIZATION ( #178, #56 ) ;
#224 = DIRECTION ( 'NONE',  ( 1.000000000000000000, 0.0000000000000000000, 0.0000000000000000000 ) ) ;
#225 = AXIS2_PLACEMENT_3D ( 'NONE', #24, #150, #25 ) ;
#226 = CALENDAR_DATE ( 2019, 7, 1 ) ;
#227 = VERTEX_POINT ( 'NONE', #167 ) ;
#228 = DIRECTION ( 'NONE',  ( -0.0000000000000000000, -1.000000000000000000, -0.0000000000000000000 ) ) ;
#229 = CARTESIAN_POINT ( 'NONE',  ( -6.249999999999994700, -6.249999999999984900, 1.000000000000000000 ) ) ;
#230 = CARTESIAN_POINT ( 'NONE',  ( 6.250000000000006200, -6.249999999999984900, 1.000000000000000000 ) ) ;
#231 = LOCAL_TIME ( 10, 25, 1.000000000000000000, #92 ) ;
#232 = CARTESIAN_POINT ( 'NONE',  ( 6.250000000000006200, 6.250000000000012400, 1.000000000000000000 ) ) ;
#233 = AXIS2_PLACEMENT_3D ( 'NONE', #88, #50, #153 ) ;
#234 = APPLICATION_CONTEXT ( 'configuration controlled 3d designs of mechanical parts and assemblies' ) ;
#235 = ADVANCED_FACE ( 'NONE', ( #236 ), #130, .F. ) ;
#236 = FACE_OUTER_BOUND ( 'NONE', #38, .T. ) ;
#237 = VECTOR ( 'NONE', #10, 1000.000000000000000 ) ;
ENDSEC;
END-ISO-10303-21;
