ISO-10303-21;
HEADER;
FILE_DESCRIPTION (( 'STEP AP214' ),
    '1' );
FILE_NAME ('TTN166721-E0W.STEP',
    '2018-10-15T13:53:37',
    ( '' ),
    ( '' ),
    'SwSTEP 2.0',
    'SolidWorks 2018',
    '' );
FILE_SCHEMA (( 'AUTOMOTIVE_DESIGN' ));
ENDSEC;

DATA;
#1 = ORIENTED_EDGE ( 'NONE', *, *, #141, .T. ) ;
#2 = ORIENTED_EDGE ( 'NONE', *, *, #13, .T. ) ;
#3 =( LENGTH_UNIT ( ) NAMED_UNIT ( * ) SI_UNIT ( .MILLI., .METRE. ) );
#4 = SURFACE_STYLE_USAGE ( .BOTH. , #24 ) ;
#5 = DIRECTION ( 'NONE',  ( 1.000000000000000000, 0.0000000000000000000, 0.0000000000000000000 ) ) ;
#6 = ORIENTED_EDGE ( 'NONE', *, *, #87, .F. ) ;
#7 = AXIS2_PLACEMENT_3D ( 'NONE', #149, #162, #68 ) ;
#8 = FACE_OUTER_BOUND ( 'NONE', #201, .T. ) ;
#9 = LINE ( 'NONE', #83, #172 ) ;
#10 = CARTESIAN_POINT ( 'NONE',  ( 35.00000000000000711, 52.00000000000000000, 3.000000000000000000 ) ) ;
#11 = CARTESIAN_POINT ( 'NONE',  ( 0.0000000000000000000, 0.0000000000000000000, 3.000000000000000000 ) ) ;
#12 = VECTOR ( 'NONE', #156, 1000.000000000000000 ) ;
#13 = EDGE_CURVE ( 'NONE', #64, #77, #9, .T. ) ;
#14 = VECTOR ( 'NONE', #32, 1000.000000000000000 ) ;
#15 = CARTESIAN_POINT ( 'NONE',  ( 35.00000000000000711, 52.00000000000000000, 0.0000000000000000000 ) ) ;
#16 =( GEOMETRIC_REPRESENTATION_CONTEXT ( 3 ) GLOBAL_UNCERTAINTY_ASSIGNED_CONTEXT ( ( #48 ) ) GLOBAL_UNIT_ASSIGNED_CONTEXT ( ( #35, #117, #19 ) ) REPRESENTATION_CONTEXT ( 'NONE', 'WORKASPACE' ) );
#17 = ORIENTED_EDGE ( 'NONE', *, *, #37, .T. ) ;
#18 = VERTEX_POINT ( 'NONE', #84 ) ;
#19 =( NAMED_UNIT ( * ) SI_UNIT ( $, .STERADIAN. ) SOLID_ANGLE_UNIT ( ) );
#20 = CARTESIAN_POINT ( 'NONE',  ( 0.0000000000000000000, 52.00000000000000000, 3.000000000000000000 ) ) ;
#21 = ADVANCED_FACE ( 'NONE', ( #110 ), #86, .F. ) ;
#22 = FILL_AREA_STYLE_COLOUR ( '', #106 ) ;
#23 = FACE_OUTER_BOUND ( 'NONE', #82, .T. ) ;
#24 = SURFACE_SIDE_STYLE ('',( #164 ) ) ;
#25 = PRODUCT_DEFINITION_CONTEXT ( 'detailed design', #163, 'design' ) ;
#26 = LINE ( 'NONE', #79, #115 ) ;
#27 = FACE_OUTER_BOUND ( 'NONE', #52, .T. ) ;
#28 = STYLED_ITEM ( 'NONE', ( #192 ), #142 ) ;
#29 = VERTEX_POINT ( 'NONE', #69 ) ;
#30 = UNCERTAINTY_MEASURE_WITH_UNIT (LENGTH_MEASURE( 1.000000000000000082E-05 ), #3, 'distance_accuracy_value', 'NONE');
#31 = VERTEX_POINT ( 'NONE', #111 ) ;
#32 = DIRECTION ( 'NONE',  ( 0.0000000000000000000, 1.000000000000000000, 0.0000000000000000000 ) ) ;
#33 = DIRECTION ( 'NONE',  ( 0.0000000000000000000, 1.000000000000000000, 0.0000000000000000000 ) ) ;
#34 = DIRECTION ( 'NONE',  ( 0.0000000000000000000, 0.0000000000000000000, -1.000000000000000000 ) ) ;
#35 =( LENGTH_UNIT ( ) NAMED_UNIT ( * ) SI_UNIT ( .MILLI., .METRE. ) );
#36 = DIRECTION ( 'NONE',  ( 1.000000000000000000, 0.0000000000000000000, 0.0000000000000000000 ) ) ;
#37 = EDGE_CURVE ( 'NONE', #29, #92, #137, .T. ) ;
#38 = DIRECTION ( 'NONE',  ( -0.0000000000000000000, -1.000000000000000000, -0.0000000000000000000 ) ) ;
#39 = APPLICATION_PROTOCOL_DEFINITION ( 'draft international standard', 'automotive_design', 1998, #99 ) ;
#40 = PLANE ( 'NONE',  #170 ) ;
#41 = UNCERTAINTY_MEASURE_WITH_UNIT (LENGTH_MEASURE( 1.000000000000000082E-05 ), #161, 'distance_accuracy_value', 'NONE');
#42 = CARTESIAN_POINT ( 'NONE',  ( 0.0000000000000000000, 52.00000000000000000, 0.0000000000000000000 ) ) ;
#43 = PRESENTATION_LAYER_ASSIGNMENT (  '', '', ( #28 ) ) ;
#44 = ORIENTED_EDGE ( 'NONE', *, *, #182, .F. ) ;
#45 = ORIENTED_EDGE ( 'NONE', *, *, #167, .F. ) ;
#46 = LINE ( 'NONE', #131, #12 ) ;
#47 = CARTESIAN_POINT ( 'NONE',  ( 0.0000000000000000000, 0.0000000000000000000, 0.0000000000000000000 ) ) ;
#48 = UNCERTAINTY_MEASURE_WITH_UNIT (LENGTH_MEASURE( 1.000000000000000082E-05 ), #35, 'distance_accuracy_value', 'NONE');
#49 = SHAPE_DEFINITION_REPRESENTATION ( #71, #142 ) ;
#50 = CARTESIAN_POINT ( 'NONE',  ( 0.0000000000000000000, 0.0000000000000000000, 3.000000000000000000 ) ) ;
#51 = ORIENTED_EDGE ( 'NONE', *, *, #182, .T. ) ;
#52 = EDGE_LOOP ( 'NONE', ( #61, #51, #191, #2 ) ) ;
#53 = LINE ( 'NONE', #120, #72 ) ;
#54 =( NAMED_UNIT ( * ) SI_UNIT ( $, .STERADIAN. ) SOLID_ANGLE_UNIT ( ) );
#55 = ORIENTED_EDGE ( 'NONE', *, *, #141, .F. ) ;
#56 =( NAMED_UNIT ( * ) PLANE_ANGLE_UNIT ( ) SI_UNIT ( $, .RADIAN. ) );
#57 = VECTOR ( 'NONE', #176, 1000.000000000000000 ) ;
#58 = DIRECTION ( 'NONE',  ( 0.0000000000000000000, 0.0000000000000000000, -1.000000000000000000 ) ) ;
#59 = DIRECTION ( 'NONE',  ( -1.000000000000000000, 0.0000000000000000000, 0.0000000000000000000 ) ) ;
#60 = DIRECTION ( 'NONE',  ( 1.000000000000000000, 0.0000000000000000000, 0.0000000000000000000 ) ) ;
#61 = ORIENTED_EDGE ( 'NONE', *, *, #63, .T. ) ;
#62 = ORIENTED_EDGE ( 'NONE', *, *, #70, .F. ) ;
#63 = EDGE_CURVE ( 'NONE', #77, #31, #153, .T. ) ;
#64 = VERTEX_POINT ( 'NONE', #10 ) ;
#65 = PLANE ( 'NONE',  #180 ) ;
#66 = VECTOR ( 'NONE', #60, 1000.000000000000000 ) ;
#67 = VECTOR ( 'NONE', #101, 1000.000000000000000 ) ;
#68 = DIRECTION ( 'NONE',  ( 0.0000000000000000000, -0.0000000000000000000, -1.000000000000000000 ) ) ;
#69 = CARTESIAN_POINT ( 'NONE',  ( 0.0000000000000000000, 0.0000000000000000000, 0.0000000000000000000 ) ) ;
#70 = EDGE_CURVE ( 'NONE', #73, #64, #98, .T. ) ;
#71 = PRODUCT_DEFINITION_SHAPE ( 'NONE', 'NONE',  #127 ) ;
#72 = VECTOR ( 'NONE', #148, 1000.000000000000000 ) ;
#73 = VERTEX_POINT ( 'NONE', #126 ) ;
#74 = VECTOR ( 'NONE', #38, 1000.000000000000000 ) ;
#75 = AXIS2_PLACEMENT_3D ( 'NONE', #116, #34, #178 ) ;
#76 = SURFACE_STYLE_USAGE ( .BOTH. , #195 ) ;
#77 = VERTEX_POINT ( 'NONE', #113 ) ;
#78 = PRESENTATION_STYLE_ASSIGNMENT (( #76 ) ) ;
#79 = CARTESIAN_POINT ( 'NONE',  ( 0.0000000000000000000, 0.0000000000000000000, 3.000000000000000000 ) ) ;
#80 = ADVANCED_FACE ( 'NONE', ( #23 ), #158, .F. ) ;
#81 =( NAMED_UNIT ( * ) SI_UNIT ( $, .STERADIAN. ) SOLID_ANGLE_UNIT ( ) );
#82 = EDGE_LOOP ( 'NONE', ( #17, #6, #44, #198 ) ) ;
#83 = CARTESIAN_POINT ( 'NONE',  ( 0.0000000000000000000, 52.00000000000000000, 3.000000000000000000 ) ) ;
#84 = CARTESIAN_POINT ( 'NONE',  ( 0.0000000000000000000, 52.00000000000000000, 0.0000000000000000000 ) ) ;
#85 = ORIENTED_EDGE ( 'NONE', *, *, #97, .F. ) ;
#86 = PLANE ( 'NONE',  #119 ) ;
#87 = EDGE_CURVE ( 'NONE', #73, #92, #46, .T. ) ;
#88 = PRODUCT ( 'TTN166721-E0W', 'TTN166721-E0W', '', ( #175 ) ) ;
#89 = ORIENTED_EDGE ( 'NONE', *, *, #13, .F. ) ;
#90 = ORIENTED_EDGE ( 'NONE', *, *, #97, .T. ) ;
#91 = CARTESIAN_POINT ( 'NONE',  ( 35.00000000000000711, 0.0000000000000000000, 3.000000000000000000 ) ) ;
#92 = VERTEX_POINT ( 'NONE', #145 ) ;
#93 = LINE ( 'NONE', #42, #67 ) ;
#94 = ORIENTED_EDGE ( 'NONE', *, *, #157, .F. ) ;
#95 = VERTEX_POINT ( 'NONE', #15 ) ;
#96 = VECTOR ( 'NONE', #135, 1000.000000000000000 ) ;
#97 = EDGE_CURVE ( 'NONE', #64, #95, #186, .T. ) ;
#98 = LINE ( 'NONE', #91, #14 ) ;
#99 = APPLICATION_CONTEXT ( 'automotive_design' ) ;
#100 = PLANE ( 'NONE',  #75 ) ;
#101 = DIRECTION ( 'NONE',  ( -1.000000000000000000, -0.0000000000000000000, -0.0000000000000000000 ) ) ;
#102 = ADVANCED_FACE ( 'NONE', ( #140 ), #100, .T. ) ;
#103 = CARTESIAN_POINT ( 'NONE',  ( 0.0000000000000000000, 0.0000000000000000000, 0.0000000000000000000 ) ) ;
#104 = DIRECTION ( 'NONE',  ( 0.0000000000000000000, 0.0000000000000000000, -1.000000000000000000 ) ) ;
#105 = DIRECTION ( 'NONE',  ( 0.0000000000000000000, 0.0000000000000000000, 1.000000000000000000 ) ) ;
#106 = COLOUR_RGB ( '',0.7529411764705882248, 0.7529411764705882248, 0.7529411764705882248 ) ;
#107 = ADVANCED_FACE ( 'NONE', ( #184 ), #197, .F. ) ;
#108 = CARTESIAN_POINT ( 'NONE',  ( 35.00000000000000711, 0.0000000000000000000, 0.0000000000000000000 ) ) ;
#109 = MECHANICAL_DESIGN_GEOMETRIC_PRESENTATION_REPRESENTATION (  '', ( #28 ), #143 ) ;
#110 = FACE_OUTER_BOUND ( 'NONE', #165, .T. ) ;
#111 = CARTESIAN_POINT ( 'NONE',  ( 0.0000000000000000000, 0.0000000000000000000, 3.000000000000000000 ) ) ;
#112 = DIRECTION ( 'NONE',  ( -1.000000000000000000, 0.0000000000000000000, -0.0000000000000000000 ) ) ;
#113 = CARTESIAN_POINT ( 'NONE',  ( 0.0000000000000000000, 52.00000000000000000, 3.000000000000000000 ) ) ;
#114 = PRESENTATION_LAYER_ASSIGNMENT (  '', '', ( #166 ) ) ;
#115 = VECTOR ( 'NONE', #179, 1000.000000000000000 ) ;
#116 = CARTESIAN_POINT ( 'NONE',  ( 0.0000000000000000000, 0.0000000000000000000, 0.0000000000000000000 ) ) ;
#117 =( NAMED_UNIT ( * ) PLANE_ANGLE_UNIT ( ) SI_UNIT ( $, .RADIAN. ) );
#118 =( NAMED_UNIT ( * ) PLANE_ANGLE_UNIT ( ) SI_UNIT ( $, .RADIAN. ) );
#119 = AXIS2_PLACEMENT_3D ( 'NONE', #125, #59, #128 ) ;
#120 = CARTESIAN_POINT ( 'NONE',  ( 0.0000000000000000000, 0.0000000000000000000, 3.000000000000000000 ) ) ;
#121 = EDGE_CURVE ( 'NONE', #18, #29, #160, .T. ) ;
#122 = ORIENTED_EDGE ( 'NONE', *, *, #87, .T. ) ;
#123 = ORIENTED_EDGE ( 'NONE', *, *, #121, .F. ) ;
#124 = AXIS2_PLACEMENT_3D ( 'NONE', #50, #33, #147 ) ;
#125 = CARTESIAN_POINT ( 'NONE',  ( 35.00000000000000711, 0.0000000000000000000, 3.000000000000000000 ) ) ;
#126 = CARTESIAN_POINT ( 'NONE',  ( 35.00000000000000711, 0.0000000000000000000, 3.000000000000000000 ) ) ;
#127 = PRODUCT_DEFINITION ( 'UNKNOWN', '', #146, #25 ) ;
#128 = DIRECTION ( 'NONE',  ( 0.0000000000000000000, 0.0000000000000000000, 1.000000000000000000 ) ) ;
#129 = CLOSED_SHELL ( 'NONE', ( #174, #80, #21, #107, #177, #102 ) ) ;
#130 = EDGE_CURVE ( 'NONE', #95, #18, #93, .T. ) ;
#131 = CARTESIAN_POINT ( 'NONE',  ( 35.00000000000000711, 0.0000000000000000000, 3.000000000000000000 ) ) ;
#132 = FILL_AREA_STYLE ('',( #193 ) ) ;
#133 = APPLICATION_PROTOCOL_DEFINITION ( 'draft international standard', 'automotive_design', 1998, #163 ) ;
#134 = CARTESIAN_POINT ( 'NONE',  ( 0.0000000000000000000, 0.0000000000000000000, 0.0000000000000000000 ) ) ;
#135 = DIRECTION ( 'NONE',  ( 0.0000000000000000000, 1.000000000000000000, 0.0000000000000000000 ) ) ;
#136 = CARTESIAN_POINT ( 'NONE',  ( 0.0000000000000000000, 0.0000000000000000000, 3.000000000000000000 ) ) ;
#137 = LINE ( 'NONE', #47, #66 ) ;
#138 =( GEOMETRIC_REPRESENTATION_CONTEXT ( 3 ) GLOBAL_UNCERTAINTY_ASSIGNED_CONTEXT ( ( #41 ) ) GLOBAL_UNIT_ASSIGNED_CONTEXT ( ( #161, #118, #81 ) ) REPRESENTATION_CONTEXT ( 'NONE', 'WORKASPACE' ) );
#139 = EDGE_LOOP ( 'NONE', ( #168, #55, #89, #90 ) ) ;
#140 = FACE_OUTER_BOUND ( 'NONE', #202, .T. ) ;
#141 = EDGE_CURVE ( 'NONE', #77, #18, #152, .T. ) ;
#142 = ADVANCED_BREP_SHAPE_REPRESENTATION ( 'TTN166721-E0W', ( #189, #185 ), #16 ) ;
#143 =( GEOMETRIC_REPRESENTATION_CONTEXT ( 3 ) GLOBAL_UNCERTAINTY_ASSIGNED_CONTEXT ( ( #30 ) ) GLOBAL_UNIT_ASSIGNED_CONTEXT ( ( #3, #56, #54 ) ) REPRESENTATION_CONTEXT ( 'NONE', 'WORKASPACE' ) );
#144 = ORIENTED_EDGE ( 'NONE', *, *, #121, .T. ) ;
#145 = CARTESIAN_POINT ( 'NONE',  ( 35.00000000000000711, 0.0000000000000000000, 0.0000000000000000000 ) ) ;
#146 = PRODUCT_DEFINITION_FORMATION_WITH_SPECIFIED_SOURCE ( 'ANY', '', #88, .NOT_KNOWN. ) ;
#147 = DIRECTION ( 'NONE',  ( 0.0000000000000000000, -0.0000000000000000000, 1.000000000000000000 ) ) ;
#148 = DIRECTION ( 'NONE',  ( -0.0000000000000000000, -0.0000000000000000000, -1.000000000000000000 ) ) ;
#149 = CARTESIAN_POINT ( 'NONE',  ( 0.0000000000000000000, 52.00000000000000000, 3.000000000000000000 ) ) ;
#150 = VECTOR ( 'NONE', #187, 1000.000000000000000 ) ;
#151 = ORIENTED_EDGE ( 'NONE', *, *, #63, .F. ) ;
#152 = LINE ( 'NONE', #20, #169 ) ;
#153 = LINE ( 'NONE', #11, #150 ) ;
#154 = COLOUR_RGB ( '',0.7529411764705882248, 0.7529411764705882248, 0.7529411764705882248 ) ;
#155 = LINE ( 'NONE', #108, #96 ) ;
#156 = DIRECTION ( 'NONE',  ( -0.0000000000000000000, -0.0000000000000000000, -1.000000000000000000 ) ) ;
#157 = EDGE_CURVE ( 'NONE', #92, #95, #155, .T. ) ;
#158 = PLANE ( 'NONE',  #124 ) ;
#159 = ORIENTED_EDGE ( 'NONE', *, *, #37, .F. ) ;
#160 = LINE ( 'NONE', #134, #74 ) ;
#161 =( LENGTH_UNIT ( ) NAMED_UNIT ( * ) SI_UNIT ( .MILLI., .METRE. ) );
#162 = DIRECTION ( 'NONE',  ( 0.0000000000000000000, -1.000000000000000000, 0.0000000000000000000 ) ) ;
#163 = APPLICATION_CONTEXT ( 'automotive_design' ) ;
#164 = SURFACE_STYLE_FILL_AREA ( #132 ) ;
#165 = EDGE_LOOP ( 'NONE', ( #171, #85, #62, #122 ) ) ;
#166 = STYLED_ITEM ( 'NONE', ( #78 ), #189 ) ;
#167 = EDGE_CURVE ( 'NONE', #31, #29, #53, .T. ) ;
#168 = ORIENTED_EDGE ( 'NONE', *, *, #130, .T. ) ;
#169 = VECTOR ( 'NONE', #181, 1000.000000000000000 ) ;
#170 = AXIS2_PLACEMENT_3D ( 'NONE', #196, #58, #112 ) ;
#171 = ORIENTED_EDGE ( 'NONE', *, *, #157, .T. ) ;
#172 = VECTOR ( 'NONE', #200, 1000.000000000000000 ) ;
#173 = CARTESIAN_POINT ( 'NONE',  ( 35.00000000000000711, 52.00000000000000000, 3.000000000000000000 ) ) ;
#174 = ADVANCED_FACE ( 'NONE', ( #8 ), #65, .F. ) ;
#175 = PRODUCT_CONTEXT ( 'NONE', #99, 'mechanical' ) ;
#176 = DIRECTION ( 'NONE',  ( -0.0000000000000000000, -0.0000000000000000000, -1.000000000000000000 ) ) ;
#177 = ADVANCED_FACE ( 'NONE', ( #27 ), #40, .F. ) ;
#178 = DIRECTION ( 'NONE',  ( -1.000000000000000000, 0.0000000000000000000, -0.0000000000000000000 ) ) ;
#179 = DIRECTION ( 'NONE',  ( 1.000000000000000000, 0.0000000000000000000, 0.0000000000000000000 ) ) ;
#180 = AXIS2_PLACEMENT_3D ( 'NONE', #136, #5, #104 ) ;
#181 = DIRECTION ( 'NONE',  ( -0.0000000000000000000, -0.0000000000000000000, -1.000000000000000000 ) ) ;
#182 = EDGE_CURVE ( 'NONE', #31, #73, #26, .T. ) ;
#183 = ORIENTED_EDGE ( 'NONE', *, *, #130, .F. ) ;
#184 = FACE_OUTER_BOUND ( 'NONE', #139, .T. ) ;
#185 = AXIS2_PLACEMENT_3D ( 'NONE', #103, #105, #36 ) ;
#186 = LINE ( 'NONE', #173, #57 ) ;
#187 = DIRECTION ( 'NONE',  ( -0.0000000000000000000, -1.000000000000000000, -0.0000000000000000000 ) ) ;
#188 = SURFACE_STYLE_FILL_AREA ( #194 ) ;
#189 = MANIFOLD_SOLID_BREP ( 'Boss-Extrude1', #129 ) ;
#190 = MECHANICAL_DESIGN_GEOMETRIC_PRESENTATION_REPRESENTATION (  '', ( #166 ), #138 ) ;
#191 = ORIENTED_EDGE ( 'NONE', *, *, #70, .T. ) ;
#192 = PRESENTATION_STYLE_ASSIGNMENT (( #4 ) ) ;
#193 = FILL_AREA_STYLE_COLOUR ( '', #154 ) ;
#194 = FILL_AREA_STYLE ('',( #22 ) ) ;
#195 = SURFACE_SIDE_STYLE ('',( #188 ) ) ;
#196 = CARTESIAN_POINT ( 'NONE',  ( 0.0000000000000000000, 0.0000000000000000000, 3.000000000000000000 ) ) ;
#197 = PLANE ( 'NONE',  #7 ) ;
#198 = ORIENTED_EDGE ( 'NONE', *, *, #167, .T. ) ;
#199 = PRODUCT_RELATED_PRODUCT_CATEGORY ( 'part', '', ( #88 ) ) ;
#200 = DIRECTION ( 'NONE',  ( -1.000000000000000000, -0.0000000000000000000, -0.0000000000000000000 ) ) ;
#201 = EDGE_LOOP ( 'NONE', ( #144, #45, #151, #1 ) ) ;
#202 = EDGE_LOOP ( 'NONE', ( #123, #183, #94, #159 ) ) ;
ENDSEC;
END-ISO-10303-21;
