ISO-10303-21;
HEADER;
FILE_DESCRIPTION (( 'STEP AP203' ),
    '1' );
FILE_NAME ('Web Model 85296_85297.step',
    '2017-05-01T20:09:22',
    ( '' ),
    ( '' ),
    'SwSTEP 2.0',
    'SolidWorks 2016',
    '' );
FILE_SCHEMA (( 'CONFIG_CONTROL_DESIGN' ));
ENDSEC;

DATA;
#1 = DIRECTION ( 'NONE',  ( -1.000000000000000000, -0.0000000000000000000, -0.0000000000000000000 ) ) ;
#2 = CARTESIAN_POINT ( 'NONE',  ( 24.99999999999999300, 25.00000000000000000, 1.000000000000000000 ) ) ;
#3 = ADVANCED_FACE ( 'NONE', ( #110 ), #190, .F. ) ;
#4 = EDGE_CURVE ( 'NONE', #226, #113, #174, .T. ) ;
#5 = AXIS2_PLACEMENT_3D ( 'NONE', #43, #232, #163 ) ;
#6 = APPROVAL_ROLE ( '' ) ;
#7 = EDGE_LOOP ( 'NONE', ( #69, #134, #31, #125 ) ) ;
#8 = CARTESIAN_POINT ( 'NONE',  ( 0.0000000000000000000, 0.0000000000000000000, 0.0000000000000000000 ) ) ;
#9 = EDGE_LOOP ( 'NONE', ( #61, #115, #86, #118 ) ) ;
#10 = AXIS2_PLACEMENT_3D ( 'NONE', #48, #157, #76 ) ;
#11 = LOCAL_TIME ( 16, 9, 22.00000000000000000, #185 ) ;
#12 = ORGANIZATION ( 'UNSPECIFIED', 'UNSPECIFIED', '' ) ;
#13 = CC_DESIGN_APPROVAL ( #64, ( #42 ) ) ;
#14 = EDGE_CURVE ( 'NONE', #226, #41, #212, .T. ) ;
#15 = CALENDAR_DATE ( 2017, 1, 5 ) ;
#16 = CALENDAR_DATE ( 2017, 1, 5 ) ;
#17 = APPLICATION_PROTOCOL_DEFINITION ( 'international standard', 'config_control_design', 1994, #70 ) ;
#18 = VERTEX_POINT ( 'NONE', #194 ) ;
#19 = PERSON_AND_ORGANIZATION ( #155, #12 ) ;
#20 = COORDINATED_UNIVERSAL_TIME_OFFSET ( 5, 0, .BEHIND. ) ;
#21 = ORIENTED_EDGE ( 'NONE', *, *, #87, .F. ) ;
#22 = CALENDAR_DATE ( 2017, 1, 5 ) ;
#23 = LOCAL_TIME ( 16, 9, 22.00000000000000000, #20 ) ;
#24 = SHAPE_DEFINITION_REPRESENTATION ( #180, #219 ) ;
#25 = CC_DESIGN_APPROVAL ( #129, ( #162 ) ) ;
#26 = DIRECTION ( 'NONE',  ( 1.387778780781445700E-016, -1.000000000000000000, 0.0000000000000000000 ) ) ;
#27 = DATE_AND_TIME ( #22, #11 ) ;
#28 = APPROVAL_STATUS ( 'not_yet_approved' ) ;
#29 = DIRECTION ( 'NONE',  ( -0.0000000000000000000, -0.0000000000000000000, -1.000000000000000000 ) ) ;
#30 = EDGE_LOOP ( 'NONE', ( #127, #145, #21, #128 ) ) ;
#31 = ORIENTED_EDGE ( 'NONE', *, *, #95, .T. ) ;
#32 = CC_DESIGN_DATE_AND_TIME_ASSIGNMENT ( #57, #170, ( #79 ) ) ;
#33 = APPROVAL_DATE_TIME ( #39, #53 ) ;
#34 = EDGE_LOOP ( 'NONE', ( #200, #62, #103, #82 ) ) ;
#35 = EDGE_CURVE ( 'NONE', #113, #166, #176, .T. ) ;
#36 = LOCAL_TIME ( 16, 9, 22.00000000000000000, #143 ) ;
#37 = EDGE_LOOP ( 'NONE', ( #205, #121, #97, #96 ) ) ;
#38 = VECTOR ( 'NONE', #26, 1000.000000000000000 ) ;
#39 = DATE_AND_TIME ( #16, #36 ) ;
#40 = PERSON_AND_ORGANIZATION ( #155, #12 ) ;
#41 = VERTEX_POINT ( 'NONE', #227 ) ;
#42 = PRODUCT_DEFINITION_FORMATION_WITH_SPECIFIED_SOURCE ( 'ANY', '', #92, .NOT_KNOWN. ) ;
#43 = CARTESIAN_POINT ( 'NONE',  ( 0.0000000000000000000, 0.0000000000000000000, -1.000000000000000000 ) ) ;
#44 = DIRECTION ( 'NONE',  ( -1.387778780781445700E-016, 1.000000000000000000, 0.0000000000000000000 ) ) ;
#45 = EDGE_CURVE ( 'NONE', #41, #166, #164, .T. ) ;
#46 = ADVANCED_FACE ( 'NONE', ( #192 ), #90, .F. ) ;
#47 = VERTEX_POINT ( 'NONE', #50 ) ;
#48 = CARTESIAN_POINT ( 'NONE',  ( 0.0000000000000000000, 0.0000000000000000000, 1.000000000000000000 ) ) ;
#49 = PERSON_AND_ORGANIZATION ( #155, #12 ) ;
#50 = CARTESIAN_POINT ( 'NONE',  ( -25.00000000000000700, 25.00000000000000000, -1.000000000000000000 ) ) ;
#51 = CARTESIAN_POINT ( 'NONE',  ( 25.00000000000000000, -25.00000000000000000, -1.000000000000000000 ) ) ;
#52 = ADVANCED_FACE ( 'NONE', ( #223 ), #224, .T. ) ;
#53 = APPROVAL ( #123, 'UNSPECIFIED' ) ;
#54 = EDGE_CURVE ( 'NONE', #166, #47, #196, .T. ) ;
#55 = ADVANCED_FACE ( 'NONE', ( #107 ), #169, .F. ) ;
#56 = PLANE ( 'NONE',  #146 ) ;
#57 = DATE_AND_TIME ( #15, #23 ) ;
#58 = ORIENTED_EDGE ( 'NONE', *, *, #45, .T. ) ;
#59 = AXIS2_PLACEMENT_3D ( 'NONE', #8, #204, #150 ) ;
#60 = EDGE_CURVE ( 'NONE', #89, #47, #147, .T. ) ;
#61 = ORIENTED_EDGE ( 'NONE', *, *, #35, .T. ) ;
#62 = ORIENTED_EDGE ( 'NONE', *, *, #4, .F. ) ;
#63 = LINE ( 'NONE', #199, #142 ) ;
#64 = APPROVAL ( #28, 'UNSPECIFIED' ) ;
#65 = ADVANCED_FACE ( 'NONE', ( #236 ), #153, .F. ) ;
#66 = UNCERTAINTY_MEASURE_WITH_UNIT (LENGTH_MEASURE( 1.000000000000000100E-005 ), #183, 'distance_accuracy_value', 'NONE');
#67 = PERSON_AND_ORGANIZATION ( #155, #12 ) ;
#68 = APPROVAL_DATE_TIME ( #27, #64 ) ;
#69 = ORIENTED_EDGE ( 'NONE', *, *, #14, .T. ) ;
#70 = APPLICATION_CONTEXT ( 'configuration controlled 3d designs of mechanical parts and assemblies' ) ;
#71 = DIRECTION ( 'NONE',  ( 0.0000000000000000000, -1.000000000000000000, 0.0000000000000000000 ) ) ;
#72 = DIRECTION ( 'NONE',  ( 1.000000000000000000, 0.0000000000000000000, 0.0000000000000000000 ) ) ;
#73 = DIRECTION ( 'NONE',  ( 1.000000000000000000, 0.0000000000000000000, 0.0000000000000000000 ) ) ;
#74 = PERSON_AND_ORGANIZATION_ROLE ( 'creator' ) ;
#75 = PERSON_AND_ORGANIZATION_ROLE ( 'design_supplier' ) ;
#76 = DIRECTION ( 'NONE',  ( 1.000000000000000000, 0.0000000000000000000, 0.0000000000000000000 ) ) ;
#77 = APPROVAL_STATUS ( 'not_yet_approved' ) ;
#78 = EDGE_CURVE ( 'NONE', #41, #89, #63, .T. ) ;
#79 = PRODUCT_DEFINITION ( 'UNKNOWN', '', #42, #211 ) ;
#80 = VECTOR ( 'NONE', #208, 1000.000000000000000 ) ;
#81 = LINE ( 'NONE', #102, #119 ) ;
#82 = ORIENTED_EDGE ( 'NONE', *, *, #94, .T. ) ;
#83 = DIRECTION ( 'NONE',  ( 0.0000000000000000000, -0.0000000000000000000, 1.000000000000000000 ) ) ;
#84 =( NAMED_UNIT ( * ) PLANE_ANGLE_UNIT ( ) SI_UNIT ( $, .RADIAN. ) );
#85 = APPLICATION_PROTOCOL_DEFINITION ( 'international standard', 'config_control_design', 1994, #214 ) ;
#86 = ORIENTED_EDGE ( 'NONE', *, *, #14, .F. ) ;
#87 = EDGE_CURVE ( 'NONE', #47, #18, #137, .T. ) ;
#88 = LOCAL_TIME ( 16, 9, 22.00000000000000000, #210 ) ;
#89 = VERTEX_POINT ( 'NONE', #156 ) ;
#90 = PLANE ( 'NONE',  #98 ) ;
#91 = CC_DESIGN_PERSON_AND_ORGANIZATION_ASSIGNMENT ( #40, #74, ( #79 ) ) ;
#92 = PRODUCT ( 'Web Model 85296_85297', 'Web Model 85296_85297', '', ( #152 ) ) ;
#93 = CARTESIAN_POINT ( 'NONE',  ( -25.00000000000000700, 25.00000000000000000, -1.000000000000000000 ) ) ;
#94 = EDGE_CURVE ( 'NONE', #120, #18, #133, .T. ) ;
#95 = EDGE_CURVE ( 'NONE', #89, #120, #136, .T. ) ;
#96 = ORIENTED_EDGE ( 'NONE', *, *, #60, .T. ) ;
#97 = ORIENTED_EDGE ( 'NONE', *, *, #95, .F. ) ;
#98 = AXIS2_PLACEMENT_3D ( 'NONE', #149, #234, #83 ) ;
#99 = EDGE_CURVE ( 'NONE', #18, #113, #181, .T. ) ;
#100 = CLOSED_SHELL ( 'NONE', ( #114, #65, #3, #46, #52, #55 ) ) ;
#101 = EDGE_CURVE ( 'NONE', #120, #226, #81, .T. ) ;
#102 = CARTESIAN_POINT ( 'NONE',  ( -25.00000000000000000, -25.00000000000000000, 1.000000000000000000 ) ) ;
#103 = ORIENTED_EDGE ( 'NONE', *, *, #101, .F. ) ;
#104 = VECTOR ( 'NONE', #1, 1000.000000000000000 ) ;
#105 = CARTESIAN_POINT ( 'NONE',  ( 24.99999999999999300, 25.00000000000000000, 1.000000000000000000 ) ) ;
#106 = DIRECTION ( 'NONE',  ( -1.000000000000000000, -0.0000000000000000000, -0.0000000000000000000 ) ) ;
#107 = FACE_OUTER_BOUND ( 'NONE', #30, .T. ) ;
#108 = PERSON_AND_ORGANIZATION_ROLE ( 'design_owner' ) ;
#109 = CARTESIAN_POINT ( 'NONE',  ( 24.99999999999999300, 25.00000000000000000, -1.000000000000000000 ) ) ;
#110 = FACE_OUTER_BOUND ( 'NONE', #37, .T. ) ;
#111 = APPROVAL_PERSON_ORGANIZATION ( #191, #64, #187 ) ;
#112 = CC_DESIGN_APPROVAL ( #53, ( #79 ) ) ;
#113 = VERTEX_POINT ( 'NONE', #51 ) ;
#114 = ADVANCED_FACE ( 'NONE', ( #161 ), #56, .F. ) ;
#115 = ORIENTED_EDGE ( 'NONE', *, *, #45, .F. ) ;
#116 = ORIENTED_EDGE ( 'NONE', *, *, #78, .F. ) ;
#117 = APPROVAL_PERSON_ORGANIZATION ( #19, #53, #186 ) ;
#118 = ORIENTED_EDGE ( 'NONE', *, *, #4, .T. ) ;
#119 = VECTOR ( 'NONE', #72, 1000.000000000000000 ) ;
#120 = VERTEX_POINT ( 'NONE', #218 ) ;
#121 = ORIENTED_EDGE ( 'NONE', *, *, #94, .F. ) ;
#122 = DIRECTION ( 'NONE',  ( -1.000000000000000000, -1.387778780781445700E-016, 0.0000000000000000000 ) ) ;
#123 = APPROVAL_STATUS ( 'not_yet_approved' ) ;
#124 = CARTESIAN_POINT ( 'NONE',  ( -25.00000000000000700, 25.00000000000000000, 1.000000000000000000 ) ) ;
#125 = ORIENTED_EDGE ( 'NONE', *, *, #101, .T. ) ;
#126 = DIRECTION ( 'NONE',  ( -1.387778780781445700E-016, 1.000000000000000000, -0.0000000000000000000 ) ) ;
#127 = ORIENTED_EDGE ( 'NONE', *, *, #35, .F. ) ;
#128 = ORIENTED_EDGE ( 'NONE', *, *, #54, .F. ) ;
#129 = APPROVAL ( #77, 'UNSPECIFIED' ) ;
#130 = CC_DESIGN_PERSON_AND_ORGANIZATION_ASSIGNMENT ( #49, #108, ( #92 ) ) ;
#131 = CALENDAR_DATE ( 2017, 1, 5 ) ;
#132 = VECTOR ( 'NONE', #29, 1000.000000000000000 ) ;
#133 = LINE ( 'NONE', #201, #80 ) ;
#134 = ORIENTED_EDGE ( 'NONE', *, *, #78, .T. ) ;
#135 = VECTOR ( 'NONE', #73, 1000.000000000000000 ) ;
#136 = LINE ( 'NONE', #198, #151 ) ;
#137 = LINE ( 'NONE', #93, #38 ) ;
#138 = ORIENTED_EDGE ( 'NONE', *, *, #54, .T. ) ;
#139 = DIRECTION ( 'NONE',  ( 0.0000000000000000000, -0.0000000000000000000, -1.000000000000000000 ) ) ;
#140 = CC_DESIGN_DATE_AND_TIME_ASSIGNMENT ( #229, #235, ( #162 ) ) ;
#141 =( NAMED_UNIT ( * ) SI_UNIT ( $, .STERADIAN. ) SOLID_ANGLE_UNIT ( ) );
#142 = VECTOR ( 'NONE', #106, 1000.000000000000000 ) ;
#143 = COORDINATED_UNIVERSAL_TIME_OFFSET ( 5, 0, .BEHIND. ) ;
#144 = DIRECTION ( 'NONE',  ( -0.0000000000000000000, -0.0000000000000000000, -1.000000000000000000 ) ) ;
#145 = ORIENTED_EDGE ( 'NONE', *, *, #99, .F. ) ;
#146 = AXIS2_PLACEMENT_3D ( 'NONE', #215, #122, #184 ) ;
#147 = LINE ( 'NONE', #124, #132 ) ;
#148 = CARTESIAN_POINT ( 'NONE',  ( -25.00000000000000700, 25.00000000000000000, -1.000000000000000000 ) ) ;
#149 = CARTESIAN_POINT ( 'NONE',  ( -25.00000000000000000, -25.00000000000000000, 1.000000000000000000 ) ) ;
#150 = DIRECTION ( 'NONE',  ( 1.000000000000000000, 0.0000000000000000000, 0.0000000000000000000 ) ) ;
#151 = VECTOR ( 'NONE', #237, 1000.000000000000000 ) ;
#152 = MECHANICAL_CONTEXT ( 'NONE', #214, 'mechanical' ) ;
#153 = PLANE ( 'NONE',  #179 ) ;
#154 = DIRECTION ( 'NONE',  ( 1.000000000000000000, 1.387778780781445700E-016, -0.0000000000000000000 ) ) ;
#155 = PERSON ( 'UNSPECIFIED', 'UNSPECIFIED', 'UNSPECIFIED', ('UNSPECIFIED'), ('UNSPECIFIED'), ('UNSPECIFIED') ) ;
#156 = CARTESIAN_POINT ( 'NONE',  ( -25.00000000000000700, 25.00000000000000000, 1.000000000000000000 ) ) ;
#157 = DIRECTION ( 'NONE',  ( -0.0000000000000000000, 0.0000000000000000000, 1.000000000000000000 ) ) ;
#158 = PERSON_AND_ORGANIZATION_ROLE ( 'classification_officer' ) ;
#159 = CARTESIAN_POINT ( 'NONE',  ( 25.00000000000000000, -25.00000000000000000, 1.000000000000000000 ) ) ;
#160 = VECTOR ( 'NONE', #220, 1000.000000000000000 ) ;
#161 = FACE_OUTER_BOUND ( 'NONE', #9, .T. ) ;
#162 = SECURITY_CLASSIFICATION ( '', '', #172 ) ;
#163 = DIRECTION ( 'NONE',  ( 1.000000000000000000, 0.0000000000000000000, 0.0000000000000000000 ) ) ;
#164 = LINE ( 'NONE', #2, #213 ) ;
#165 = MANIFOLD_SOLID_BREP ( 'Boss-Extrude1', #100 ) ;
#166 = VERTEX_POINT ( 'NONE', #188 ) ;
#167 =( GEOMETRIC_REPRESENTATION_CONTEXT ( 3 ) GLOBAL_UNCERTAINTY_ASSIGNED_CONTEXT ( ( #66 ) ) GLOBAL_UNIT_ASSIGNED_CONTEXT ( ( #183, #84, #141 ) ) REPRESENTATION_CONTEXT ( 'NONE', 'WORKASPACE' ) );
#168 = APPROVAL_PERSON_ORGANIZATION ( #230, #129, #6 ) ;
#169 = PLANE ( 'NONE',  #5 ) ;
#170 = DATE_TIME_ROLE ( 'creation_date' ) ;
#171 = EDGE_LOOP ( 'NONE', ( #138, #178, #116, #58 ) ) ;
#172 = SECURITY_CLASSIFICATION_LEVEL ( 'unclassified' ) ;
#173 = CALENDAR_DATE ( 2017, 1, 5 ) ;
#174 = LINE ( 'NONE', #159, #160 ) ;
#175 = CC_DESIGN_PERSON_AND_ORGANIZATION_ASSIGNMENT ( #67, #75, ( #42 ) ) ;
#176 = LINE ( 'NONE', #109, #195 ) ;
#177 = VECTOR ( 'NONE', #207, 1000.000000000000000 ) ;
#178 = ORIENTED_EDGE ( 'NONE', *, *, #60, .F. ) ;
#179 = AXIS2_PLACEMENT_3D ( 'NONE', #203, #71, #139 ) ;
#180 = PRODUCT_DEFINITION_SHAPE ( 'NONE', 'NONE',  #79 ) ;
#181 = LINE ( 'NONE', #189, #135 ) ;
#182 = PERSON_AND_ORGANIZATION_ROLE ( 'creator' ) ;
#183 =( LENGTH_UNIT ( ) NAMED_UNIT ( * ) SI_UNIT ( .MILLI., .METRE. ) );
#184 = DIRECTION ( 'NONE',  ( 1.387778780781445700E-016, -1.000000000000000000, 0.0000000000000000000 ) ) ;
#185 = COORDINATED_UNIVERSAL_TIME_OFFSET ( 5, 0, .BEHIND. ) ;
#186 = APPROVAL_ROLE ( '' ) ;
#187 = APPROVAL_ROLE ( '' ) ;
#188 = CARTESIAN_POINT ( 'NONE',  ( 24.99999999999999300, 25.00000000000000000, -1.000000000000000000 ) ) ;
#189 = CARTESIAN_POINT ( 'NONE',  ( -25.00000000000000000, -25.00000000000000000, -1.000000000000000000 ) ) ;
#190 = PLANE ( 'NONE',  #197 ) ;
#191 = PERSON_AND_ORGANIZATION ( #155, #12 ) ;
#192 = FACE_OUTER_BOUND ( 'NONE', #34, .T. ) ;
#193 = CARTESIAN_POINT ( 'NONE',  ( 25.00000000000000000, -25.00000000000000000, 1.000000000000000000 ) ) ;
#194 = CARTESIAN_POINT ( 'NONE',  ( -25.00000000000000000, -25.00000000000000000, -1.000000000000000000 ) ) ;
#195 = VECTOR ( 'NONE', #126, 1000.000000000000000 ) ;
#196 = LINE ( 'NONE', #148, #104 ) ;
#197 = AXIS2_PLACEMENT_3D ( 'NONE', #202, #154, #44 ) ;
#198 = CARTESIAN_POINT ( 'NONE',  ( -25.00000000000000700, 25.00000000000000000, 1.000000000000000000 ) ) ;
#199 = CARTESIAN_POINT ( 'NONE',  ( -25.00000000000000700, 25.00000000000000000, 1.000000000000000000 ) ) ;
#200 = ORIENTED_EDGE ( 'NONE', *, *, #99, .T. ) ;
#201 = CARTESIAN_POINT ( 'NONE',  ( -25.00000000000000000, -25.00000000000000000, 1.000000000000000000 ) ) ;
#202 = CARTESIAN_POINT ( 'NONE',  ( -25.00000000000000700, 25.00000000000000000, 1.000000000000000000 ) ) ;
#203 = CARTESIAN_POINT ( 'NONE',  ( -25.00000000000000700, 25.00000000000000000, 1.000000000000000000 ) ) ;
#204 = DIRECTION ( 'NONE',  ( 0.0000000000000000000, 0.0000000000000000000, 1.000000000000000000 ) ) ;
#205 = ORIENTED_EDGE ( 'NONE', *, *, #87, .T. ) ;
#206 = PRODUCT_RELATED_PRODUCT_CATEGORY ( 'detail', '', ( #92 ) ) ;
#207 = DIRECTION ( 'NONE',  ( -1.387778780781445700E-016, 1.000000000000000000, -0.0000000000000000000 ) ) ;
#208 = DIRECTION ( 'NONE',  ( -0.0000000000000000000, -0.0000000000000000000, -1.000000000000000000 ) ) ;
#209 = CC_DESIGN_PERSON_AND_ORGANIZATION_ASSIGNMENT ( #233, #158, ( #162 ) ) ;
#210 = COORDINATED_UNIVERSAL_TIME_OFFSET ( 5, 0, .BEHIND. ) ;
#211 = DESIGN_CONTEXT ( 'detailed design', #70, 'design' ) ;
#212 = LINE ( 'NONE', #105, #177 ) ;
#213 = VECTOR ( 'NONE', #144, 1000.000000000000000 ) ;
#214 = APPLICATION_CONTEXT ( 'configuration controlled 3d designs of mechanical parts and assemblies' ) ;
#215 = CARTESIAN_POINT ( 'NONE',  ( 24.99999999999999300, 25.00000000000000000, 1.000000000000000000 ) ) ;
#216 = APPROVAL_DATE_TIME ( #217, #129 ) ;
#217 = DATE_AND_TIME ( #173, #221 ) ;
#218 = CARTESIAN_POINT ( 'NONE',  ( -25.00000000000000000, -25.00000000000000000, 1.000000000000000000 ) ) ;
#219 = ADVANCED_BREP_SHAPE_REPRESENTATION ( 'Web Model 85296_85297', ( #165, #59 ), #167 ) ;
#220 = DIRECTION ( 'NONE',  ( -0.0000000000000000000, -0.0000000000000000000, -1.000000000000000000 ) ) ;
#221 = LOCAL_TIME ( 16, 9, 22.00000000000000000, #225 ) ;
#222 = CC_DESIGN_PERSON_AND_ORGANIZATION_ASSIGNMENT ( #231, #182, ( #42 ) ) ;
#223 = FACE_OUTER_BOUND ( 'NONE', #7, .T. ) ;
#224 = PLANE ( 'NONE',  #10 ) ;
#225 = COORDINATED_UNIVERSAL_TIME_OFFSET ( 5, 0, .BEHIND. ) ;
#226 = VERTEX_POINT ( 'NONE', #193 ) ;
#227 = CARTESIAN_POINT ( 'NONE',  ( 24.99999999999999300, 25.00000000000000000, 1.000000000000000000 ) ) ;
#228 = CC_DESIGN_SECURITY_CLASSIFICATION ( #162, ( #42 ) ) ;
#229 = DATE_AND_TIME ( #131, #88 ) ;
#230 = PERSON_AND_ORGANIZATION ( #155, #12 ) ;
#231 = PERSON_AND_ORGANIZATION ( #155, #12 ) ;
#232 = DIRECTION ( 'NONE',  ( -0.0000000000000000000, 0.0000000000000000000, 1.000000000000000000 ) ) ;
#233 = PERSON_AND_ORGANIZATION ( #155, #12 ) ;
#234 = DIRECTION ( 'NONE',  ( 0.0000000000000000000, 1.000000000000000000, 0.0000000000000000000 ) ) ;
#235 = DATE_TIME_ROLE ( 'classification_date' ) ;
#236 = FACE_OUTER_BOUND ( 'NONE', #171, .T. ) ;
#237 = DIRECTION ( 'NONE',  ( 1.387778780781445700E-016, -1.000000000000000000, 0.0000000000000000000 ) ) ;
ENDSEC;
END-ISO-10303-21;
