ISO-10303-21;
HEADER;
FILE_DESCRIPTION (( 'STEP AP203' ),
    '1' );
FILE_NAME ('Web Model 43847_54850.step',
    '2018-03-12T20:49:43',
    ( '' ),
    ( '' ),
    'SwSTEP 2.0',
    'SolidWorks 2016',
    '' );
FILE_SCHEMA (( 'CONFIG_CONTROL_DESIGN' ));
ENDSEC;

DATA;
#1 = CC_DESIGN_DATE_AND_TIME_ASSIGNMENT ( #169, #32, ( #184 ) ) ;
#2 = LINE ( 'NONE', #231, #23 ) ;
#3 = CC_DESIGN_SECURITY_CLASSIFICATION ( #184, ( #126 ) ) ;
#4 = EDGE_LOOP ( 'NONE', ( #237, #94, #54, #47 ) ) ;
#5 = DIRECTION ( 'NONE',  ( 0.0000000000000000000, -2.048885995248197400E-016, 1.000000000000000000 ) ) ;
#6 = ADVANCED_FACE ( 'NONE', ( #233 ), #223, .T. ) ;
#7 = DIRECTION ( 'NONE',  ( 0.0000000000000000000, -1.000000000000000000, 2.048885995248197400E-016 ) ) ;
#8 = VECTOR ( 'NONE', #191, 1000.000000000000000 ) ;
#9 = EDGE_LOOP ( 'NONE', ( #14, #113, #24, #39 ) ) ;
#10 = PERSON_AND_ORGANIZATION ( #181, #125 ) ;
#11 = DESIGN_CONTEXT ( 'detailed design', #230, 'design' ) ;
#12 = SECURITY_CLASSIFICATION_LEVEL ( 'unclassified' ) ;
#13 = APPLICATION_CONTEXT ( 'configuration controlled 3d designs of mechanical parts and assemblies' ) ;
#14 = ORIENTED_EDGE ( 'NONE', *, *, #89, .T. ) ;
#15 = LOCAL_TIME ( 16, 49, 43.00000000000000000, #74 ) ;
#16 = CARTESIAN_POINT ( 'NONE',  ( 3.000000000000000000, 6.349999999999998800, 6.349999999999999600 ) ) ;
#17 = CARTESIAN_POINT ( 'NONE',  ( 3.000000000000000000, 6.349999999999998800, 6.349999999999999600 ) ) ;
#18 = VECTOR ( 'NONE', #194, 1000.000000000000000 ) ;
#19 = APPROVAL_ROLE ( '' ) ;
#20 = VERTEX_POINT ( 'NONE', #101 ) ;
#21 = EDGE_CURVE ( 'NONE', #112, #79, #28, .T. ) ;
#22 = CALENDAR_DATE ( 2018, 12, 3 ) ;
#23 = VECTOR ( 'NONE', #157, 1000.000000000000000 ) ;
#24 = ORIENTED_EDGE ( 'NONE', *, *, #190, .F. ) ;
#25 = LOCAL_TIME ( 16, 49, 43.00000000000000000, #115 ) ;
#26 = APPROVAL ( #155, 'UNSPECIFIED' ) ;
#27 = DIRECTION ( 'NONE',  ( 1.000000000000000000, 0.0000000000000000000, 0.0000000000000000000 ) ) ;
#28 = LINE ( 'NONE', #133, #220 ) ;
#29 = ORIENTED_EDGE ( 'NONE', *, *, #201, .F. ) ;
#30 = DIRECTION ( 'NONE',  ( 0.0000000000000000000, 0.0000000000000000000, -1.000000000000000000 ) ) ;
#31 = PLANE ( 'NONE',  #227 ) ;
#32 = DATE_TIME_ROLE ( 'classification_date' ) ;
#33 = CARTESIAN_POINT ( 'NONE',  ( 3.000000000000000000, 6.349999999999998800, -6.349999999999999600 ) ) ;
#34 = DIRECTION ( 'NONE',  ( 0.0000000000000000000, -2.048885995248197400E-016, -1.000000000000000000 ) ) ;
#35 =( GEOMETRIC_REPRESENTATION_CONTEXT ( 3 ) GLOBAL_UNCERTAINTY_ASSIGNED_CONTEXT ( ( #71 ) ) GLOBAL_UNIT_ASSIGNED_CONTEXT ( ( #192, #139, #117 ) ) REPRESENTATION_CONTEXT ( 'NONE', 'WORKASPACE' ) );
#36 = PERSON_AND_ORGANIZATION_ROLE ( 'creator' ) ;
#37 = PLANE ( 'NONE',  #102 ) ;
#38 = ORIENTED_EDGE ( 'NONE', *, *, #44, .F. ) ;
#39 = ORIENTED_EDGE ( 'NONE', *, *, #201, .T. ) ;
#40 = COORDINATED_UNIVERSAL_TIME_OFFSET ( 5, 0, .BEHIND. ) ;
#41 = PRODUCT_DEFINITION_SHAPE ( 'NONE', 'NONE',  #96 ) ;
#42 = ADVANCED_FACE ( 'NONE', ( #128 ), #77, .F. ) ;
#43 = DATE_AND_TIME ( #64, #25 ) ;
#44 = EDGE_CURVE ( 'NONE', #20, #112, #214, .T. ) ;
#45 = CARTESIAN_POINT ( 'NONE',  ( 3.000000000000000000, 6.349999999999998800, -6.349999999999999600 ) ) ;
#46 = CARTESIAN_POINT ( 'NONE',  ( 3.000000000000000000, -6.350000000000000500, 6.350000000000002300 ) ) ;
#47 = ORIENTED_EDGE ( 'NONE', *, *, #206, .T. ) ;
#48 = CALENDAR_DATE ( 2018, 12, 3 ) ;
#49 = DIRECTION ( 'NONE',  ( -0.0000000000000000000, 1.000000000000000000, 2.048885995248197400E-016 ) ) ;
#50 = DIRECTION ( 'NONE',  ( 0.0000000000000000000, 0.0000000000000000000, 1.000000000000000000 ) ) ;
#51 = PRODUCT ( 'Web Model 43847_54850', 'Web Model 43847_54850', '', ( #65 ) ) ;
#52 = CARTESIAN_POINT ( 'NONE',  ( -3.000000000000000000, 6.349999999999998800, -6.349999999999999600 ) ) ;
#53 = VECTOR ( 'NONE', #167, 1000.000000000000000 ) ;
#54 = ORIENTED_EDGE ( 'NONE', *, *, #217, .T. ) ;
#55 = AXIS2_PLACEMENT_3D ( 'NONE', #45, #5, #98 ) ;
#56 = FACE_OUTER_BOUND ( 'NONE', #210, .T. ) ;
#57 = ORIENTED_EDGE ( 'NONE', *, *, #206, .F. ) ;
#58 = DATE_AND_TIME ( #48, #205 ) ;
#59 = CC_DESIGN_DATE_AND_TIME_ASSIGNMENT ( #43, #107, ( #96 ) ) ;
#60 = PLANE ( 'NONE',  #86 ) ;
#61 = CARTESIAN_POINT ( 'NONE',  ( 3.000000000000000000, -6.350000000000000500, -6.350000000000002300 ) ) ;
#62 = CC_DESIGN_APPROVAL ( #209, ( #96 ) ) ;
#63 = PERSON_AND_ORGANIZATION_ROLE ( 'design_owner' ) ;
#64 = CALENDAR_DATE ( 2018, 12, 3 ) ;
#65 = MECHANICAL_CONTEXT ( 'NONE', #13, 'mechanical' ) ;
#66 = DIRECTION ( 'NONE',  ( 0.0000000000000000000, -0.0000000000000000000, 1.000000000000000000 ) ) ;
#67 = DIRECTION ( 'NONE',  ( -1.000000000000000000, -0.0000000000000000000, -0.0000000000000000000 ) ) ;
#68 = VERTEX_POINT ( 'NONE', #61 ) ;
#69 = PERSON_AND_ORGANIZATION ( #181, #125 ) ;
#70 = EDGE_CURVE ( 'NONE', #75, #124, #99, .T. ) ;
#71 = UNCERTAINTY_MEASURE_WITH_UNIT (LENGTH_MEASURE( 1.000000000000000100E-005 ), #192, 'distance_accuracy_value', 'NONE');
#72 = ORIENTED_EDGE ( 'NONE', *, *, #70, .F. ) ;
#73 = ORIENTED_EDGE ( 'NONE', *, *, #89, .F. ) ;
#74 = COORDINATED_UNIVERSAL_TIME_OFFSET ( 5, 0, .BEHIND. ) ;
#75 = VERTEX_POINT ( 'NONE', #151 ) ;
#76 = LOCAL_TIME ( 16, 49, 43.00000000000000000, #40 ) ;
#77 = PLANE ( 'NONE',  #55 ) ;
#78 = VECTOR ( 'NONE', #49, 1000.000000000000000 ) ;
#79 = VERTEX_POINT ( 'NONE', #171 ) ;
#80 = COORDINATED_UNIVERSAL_TIME_OFFSET ( 5, 0, .BEHIND. ) ;
#81 = DIRECTION ( 'NONE',  ( 0.0000000000000000000, 0.0000000000000000000, -1.000000000000000000 ) ) ;
#82 = PLANE ( 'NONE',  #137 ) ;
#83 = EDGE_LOOP ( 'NONE', ( #186, #204, #198, #200 ) ) ;
#84 = CARTESIAN_POINT ( 'NONE',  ( 3.000000000000000000, -6.350000000000000500, 6.350000000000002300 ) ) ;
#85 = CARTESIAN_POINT ( 'NONE',  ( 0.0000000000000000000, 0.0000000000000000000, 0.0000000000000000000 ) ) ;
#86 = AXIS2_PLACEMENT_3D ( 'NONE', #153, #208, #81 ) ;
#87 = ADVANCED_BREP_SHAPE_REPRESENTATION ( 'Web Model 43847_54850', ( #187, #159 ), #35 ) ;
#88 = VECTOR ( 'NONE', #156, 1000.000000000000000 ) ;
#89 = EDGE_CURVE ( 'NONE', #79, #130, #180, .T. ) ;
#90 = DIRECTION ( 'NONE',  ( -0.0000000000000000000, 1.000000000000000000, 2.048885995248197400E-016 ) ) ;
#91 = CLOSED_SHELL ( 'NONE', ( #165, #149, #42, #211, #6, #131 ) ) ;
#92 = VECTOR ( 'NONE', #170, 1000.000000000000000 ) ;
#93 = COORDINATED_UNIVERSAL_TIME_OFFSET ( 5, 0, .BEHIND. ) ;
#94 = ORIENTED_EDGE ( 'NONE', *, *, #190, .T. ) ;
#95 = SHAPE_DEFINITION_REPRESENTATION ( #41, #87 ) ;
#96 = PRODUCT_DEFINITION ( 'UNKNOWN', '', #126, #11 ) ;
#97 = CARTESIAN_POINT ( 'NONE',  ( 3.000000000000000000, 0.0000000000000000000, 0.0000000000000000000 ) ) ;
#98 = DIRECTION ( 'NONE',  ( 0.0000000000000000000, -1.000000000000000000, -2.048885995248197400E-016 ) ) ;
#99 = LINE ( 'NONE', #185, #114 ) ;
#100 = CALENDAR_DATE ( 2018, 12, 3 ) ;
#101 = CARTESIAN_POINT ( 'NONE',  ( -3.000000000000000000, 6.349999999999998800, -6.349999999999999600 ) ) ;
#102 = AXIS2_PLACEMENT_3D ( 'NONE', #16, #141, #103 ) ;
#103 = DIRECTION ( 'NONE',  ( 0.0000000000000000000, -0.0000000000000000000, -1.000000000000000000 ) ) ;
#104 = LINE ( 'NONE', #17, #18 ) ;
#105 = PERSON_AND_ORGANIZATION ( #181, #125 ) ;
#106 = APPLICATION_PROTOCOL_DEFINITION ( 'international standard', 'config_control_design', 1994, #230 ) ;
#107 = DATE_TIME_ROLE ( 'creation_date' ) ;
#108 = PERSON_AND_ORGANIZATION ( #181, #125 ) ;
#109 = ORIENTED_EDGE ( 'NONE', *, *, #224, .T. ) ;
#110 = CC_DESIGN_PERSON_AND_ORGANIZATION_ASSIGNMENT ( #183, #178, ( #126 ) ) ;
#111 = LINE ( 'NONE', #136, #8 ) ;
#112 = VERTEX_POINT ( 'NONE', #188 ) ;
#113 = ORIENTED_EDGE ( 'NONE', *, *, #222, .F. ) ;
#114 = VECTOR ( 'NONE', #132, 1000.000000000000000 ) ;
#115 = COORDINATED_UNIVERSAL_TIME_OFFSET ( 5, 0, .BEHIND. ) ;
#116 = CARTESIAN_POINT ( 'NONE',  ( -3.000000000000000000, -6.350000000000000500, -6.350000000000002300 ) ) ;
#117 =( NAMED_UNIT ( * ) SI_UNIT ( $, .STERADIAN. ) SOLID_ANGLE_UNIT ( ) );
#118 = EDGE_LOOP ( 'NONE', ( #218, #38, #175, #73 ) ) ;
#119 = APPROVAL_ROLE ( '' ) ;
#120 = VERTEX_POINT ( 'NONE', #228 ) ;
#121 = EDGE_CURVE ( 'NONE', #75, #112, #226, .T. ) ;
#122 = CALENDAR_DATE ( 2018, 12, 3 ) ;
#123 = ORIENTED_EDGE ( 'NONE', *, *, #21, .T. ) ;
#124 = VERTEX_POINT ( 'NONE', #46 ) ;
#125 = ORGANIZATION ( 'UNSPECIFIED', 'UNSPECIFIED', '' ) ;
#126 = PRODUCT_DEFINITION_FORMATION_WITH_SPECIFIED_SOURCE ( 'ANY', '', #51, .NOT_KNOWN. ) ;
#127 = LINE ( 'NONE', #234, #88 ) ;
#128 = FACE_OUTER_BOUND ( 'NONE', #83, .T. ) ;
#129 = PERSON_AND_ORGANIZATION ( #181, #125 ) ;
#130 = VERTEX_POINT ( 'NONE', #116 ) ;
#131 = ADVANCED_FACE ( 'NONE', ( #189 ), #60, .F. ) ;
#132 = DIRECTION ( 'NONE',  ( 0.0000000000000000000, -1.000000000000000000, 2.048885995248197400E-016 ) ) ;
#133 = CARTESIAN_POINT ( 'NONE',  ( -3.000000000000000000, 6.349999999999998800, 6.349999999999999600 ) ) ;
#134 = DATE_AND_TIME ( #100, #15 ) ;
#135 = PERSON_AND_ORGANIZATION_ROLE ( 'classification_officer' ) ;
#136 = CARTESIAN_POINT ( 'NONE',  ( 3.000000000000000000, -6.350000000000000500, -6.350000000000002300 ) ) ;
#137 = AXIS2_PLACEMENT_3D ( 'NONE', #177, #196, #66 ) ;
#138 = CARTESIAN_POINT ( 'NONE',  ( 3.000000000000000000, 6.349999999999998800, 6.349999999999999600 ) ) ;
#139 =( NAMED_UNIT ( * ) PLANE_ANGLE_UNIT ( ) SI_UNIT ( $, .RADIAN. ) );
#140 = LINE ( 'NONE', #52, #78 ) ;
#141 = DIRECTION ( 'NONE',  ( 0.0000000000000000000, -1.000000000000000000, 0.0000000000000000000 ) ) ;
#142 = CC_DESIGN_PERSON_AND_ORGANIZATION_ASSIGNMENT ( #129, #158, ( #126 ) ) ;
#143 = FACE_OUTER_BOUND ( 'NONE', #9, .T. ) ;
#144 = LINE ( 'NONE', #33, #235 ) ;
#145 = PRODUCT_RELATED_PRODUCT_CATEGORY ( 'detail', '', ( #51 ) ) ;
#146 = EDGE_CURVE ( 'NONE', #130, #20, #140, .T. ) ;
#147 = ORIENTED_EDGE ( 'NONE', *, *, #121, .F. ) ;
#148 = APPROVAL_PERSON_ORGANIZATION ( #199, #202, #173 ) ;
#149 = ADVANCED_FACE ( 'NONE', ( #143 ), #82, .F. ) ;
#150 = CC_DESIGN_APPROVAL ( #26, ( #184 ) ) ;
#151 = CARTESIAN_POINT ( 'NONE',  ( 3.000000000000000000, 6.349999999999998800, 6.349999999999999600 ) ) ;
#152 = DIRECTION ( 'NONE',  ( 0.0000000000000000000, 0.0000000000000000000, -1.000000000000000000 ) ) ;
#153 = CARTESIAN_POINT ( 'NONE',  ( -3.000000000000000000, 0.0000000000000000000, 0.0000000000000000000 ) ) ;
#154 = PERSON_AND_ORGANIZATION ( #181, #125 ) ;
#155 = APPROVAL_STATUS ( 'not_yet_approved' ) ;
#156 = DIRECTION ( 'NONE',  ( 0.0000000000000000000, 0.0000000000000000000, -1.000000000000000000 ) ) ;
#157 = DIRECTION ( 'NONE',  ( -1.000000000000000000, -0.0000000000000000000, -0.0000000000000000000 ) ) ;
#158 = PERSON_AND_ORGANIZATION_ROLE ( 'creator' ) ;
#159 = AXIS2_PLACEMENT_3D ( 'NONE', #85, #50, #176 ) ;
#160 = LINE ( 'NONE', #84, #168 ) ;
#161 = CC_DESIGN_PERSON_AND_ORGANIZATION_ASSIGNMENT ( #105, #135, ( #184 ) ) ;
#162 = APPROVAL_DATE_TIME ( #58, #209 ) ;
#163 = AXIS2_PLACEMENT_3D ( 'NONE', #97, #27, #152 ) ;
#164 = CARTESIAN_POINT ( 'NONE',  ( -3.000000000000000000, 6.349999999999998800, 6.349999999999999600 ) ) ;
#165 = ADVANCED_FACE ( 'NONE', ( #56 ), #31, .F. ) ;
#166 = CC_DESIGN_PERSON_AND_ORGANIZATION_ASSIGNMENT ( #69, #63, ( #51 ) ) ;
#167 = DIRECTION ( 'NONE',  ( -1.000000000000000000, -0.0000000000000000000, -0.0000000000000000000 ) ) ;
#168 = VECTOR ( 'NONE', #67, 1000.000000000000000 ) ;
#169 = DATE_AND_TIME ( #22, #76 ) ;
#170 = DIRECTION ( 'NONE',  ( -0.0000000000000000000, -0.0000000000000000000, 1.000000000000000000 ) ) ;
#171 = CARTESIAN_POINT ( 'NONE',  ( -3.000000000000000000, -6.350000000000000500, 6.350000000000002300 ) ) ;
#172 = CARTESIAN_POINT ( 'NONE',  ( 3.000000000000000000, 6.349999999999998800, 6.349999999999999600 ) ) ;
#173 = APPROVAL_ROLE ( '' ) ;
#174 = DATE_AND_TIME ( #122, #193 ) ;
#175 = ORIENTED_EDGE ( 'NONE', *, *, #146, .F. ) ;
#176 = DIRECTION ( 'NONE',  ( 1.000000000000000000, 0.0000000000000000000, 0.0000000000000000000 ) ) ;
#177 = CARTESIAN_POINT ( 'NONE',  ( 3.000000000000000000, -6.350000000000000500, 6.350000000000002300 ) ) ;
#178 = PERSON_AND_ORGANIZATION_ROLE ( 'design_supplier' ) ;
#179 = APPLICATION_PROTOCOL_DEFINITION ( 'international standard', 'config_control_design', 1994, #13 ) ;
#180 = LINE ( 'NONE', #212, #225 ) ;
#181 = PERSON ( 'UNSPECIFIED', 'UNSPECIFIED', 'UNSPECIFIED', ('UNSPECIFIED'), ('UNSPECIFIED'), ('UNSPECIFIED') ) ;
#182 = EDGE_LOOP ( 'NONE', ( #221, #147, #57, #109 ) ) ;
#183 = PERSON_AND_ORGANIZATION ( #181, #125 ) ;
#184 = SECURITY_CLASSIFICATION ( '', '', #12 ) ;
#185 = CARTESIAN_POINT ( 'NONE',  ( 3.000000000000000000, 6.349999999999998800, 6.349999999999999600 ) ) ;
#186 = ORIENTED_EDGE ( 'NONE', *, *, #146, .T. ) ;
#187 = MANIFOLD_SOLID_BREP ( 'Boss-Extrude1', #91 ) ;
#188 = CARTESIAN_POINT ( 'NONE',  ( -3.000000000000000000, 6.349999999999998800, 6.349999999999999600 ) ) ;
#189 = FACE_OUTER_BOUND ( 'NONE', #118, .T. ) ;
#190 = EDGE_CURVE ( 'NONE', #124, #68, #127, .T. ) ;
#191 = DIRECTION ( 'NONE',  ( -1.000000000000000000, -0.0000000000000000000, -0.0000000000000000000 ) ) ;
#192 =( LENGTH_UNIT ( ) NAMED_UNIT ( * ) SI_UNIT ( .MILLI., .METRE. ) );
#193 = LOCAL_TIME ( 16, 49, 43.00000000000000000, #93 ) ;
#194 = DIRECTION ( 'NONE',  ( -0.0000000000000000000, -0.0000000000000000000, 1.000000000000000000 ) ) ;
#195 = CC_DESIGN_PERSON_AND_ORGANIZATION_ASSIGNMENT ( #10, #36, ( #96 ) ) ;
#196 = DIRECTION ( 'NONE',  ( -0.0000000000000000000, 1.000000000000000000, 0.0000000000000000000 ) ) ;
#197 = APPROVAL_PERSON_ORGANIZATION ( #154, #26, #19 ) ;
#198 = ORIENTED_EDGE ( 'NONE', *, *, #217, .F. ) ;
#199 = PERSON_AND_ORGANIZATION ( #181, #125 ) ;
#200 = ORIENTED_EDGE ( 'NONE', *, *, #222, .T. ) ;
#201 = EDGE_CURVE ( 'NONE', #124, #79, #160, .T. ) ;
#202 = APPROVAL ( #236, 'UNSPECIFIED' ) ;
#203 = FACE_OUTER_BOUND ( 'NONE', #182, .T. ) ;
#204 = ORIENTED_EDGE ( 'NONE', *, *, #224, .F. ) ;
#205 = LOCAL_TIME ( 16, 49, 43.00000000000000000, #80 ) ;
#206 = EDGE_CURVE ( 'NONE', #120, #75, #104, .T. ) ;
#207 = APPROVAL_PERSON_ORGANIZATION ( #108, #209, #119 ) ;
#208 = DIRECTION ( 'NONE',  ( 1.000000000000000000, 0.0000000000000000000, 0.0000000000000000000 ) ) ;
#209 = APPROVAL ( #232, 'UNSPECIFIED' ) ;
#210 = EDGE_LOOP ( 'NONE', ( #123, #29, #72, #216 ) ) ;
#211 = ADVANCED_FACE ( 'NONE', ( #203 ), #37, .F. ) ;
#212 = CARTESIAN_POINT ( 'NONE',  ( -3.000000000000000000, -6.350000000000000500, 6.350000000000002300 ) ) ;
#213 = DIRECTION ( 'NONE',  ( 0.0000000000000000000, 1.000000000000000000, -2.048885995248197400E-016 ) ) ;
#214 = LINE ( 'NONE', #164, #92 ) ;
#215 = APPROVAL_DATE_TIME ( #174, #26 ) ;
#216 = ORIENTED_EDGE ( 'NONE', *, *, #121, .T. ) ;
#217 = EDGE_CURVE ( 'NONE', #68, #120, #144, .T. ) ;
#218 = ORIENTED_EDGE ( 'NONE', *, *, #21, .F. ) ;
#219 = CC_DESIGN_APPROVAL ( #202, ( #126 ) ) ;
#220 = VECTOR ( 'NONE', #7, 1000.000000000000000 ) ;
#221 = ORIENTED_EDGE ( 'NONE', *, *, #44, .T. ) ;
#222 = EDGE_CURVE ( 'NONE', #68, #130, #111, .T. ) ;
#223 = PLANE ( 'NONE',  #163 ) ;
#224 = EDGE_CURVE ( 'NONE', #120, #20, #2, .T. ) ;
#225 = VECTOR ( 'NONE', #30, 1000.000000000000000 ) ;
#226 = LINE ( 'NONE', #172, #53 ) ;
#227 = AXIS2_PLACEMENT_3D ( 'NONE', #138, #34, #213 ) ;
#228 = CARTESIAN_POINT ( 'NONE',  ( 3.000000000000000000, 6.349999999999998800, -6.349999999999999600 ) ) ;
#229 = APPROVAL_DATE_TIME ( #134, #202 ) ;
#230 = APPLICATION_CONTEXT ( 'configuration controlled 3d designs of mechanical parts and assemblies' ) ;
#231 = CARTESIAN_POINT ( 'NONE',  ( 3.000000000000000000, 6.349999999999998800, -6.349999999999999600 ) ) ;
#232 = APPROVAL_STATUS ( 'not_yet_approved' ) ;
#233 = FACE_OUTER_BOUND ( 'NONE', #4, .T. ) ;
#234 = CARTESIAN_POINT ( 'NONE',  ( 3.000000000000000000, -6.350000000000000500, 6.350000000000002300 ) ) ;
#235 = VECTOR ( 'NONE', #90, 1000.000000000000000 ) ;
#236 = APPROVAL_STATUS ( 'not_yet_approved' ) ;
#237 = ORIENTED_EDGE ( 'NONE', *, *, #70, .T. ) ;
ENDSEC;
END-ISO-10303-21;
