ISO-10303-21;
HEADER;
FILE_DESCRIPTION (( 'STEP AP203' ),
    '1' );
FILE_NAME ('Web Model 68500.STEP',
    '2017-02-01T13:22:41',
    ( '' ),
    ( '' ),
    'SwSTEP 2.0',
    'SolidWorks 2016',
    '' );
FILE_SCHEMA (( 'CONFIG_CONTROL_DESIGN' ));
ENDSEC;

DATA;
#1 = CIRCLE ( 'NONE', #54, 10.00000000000000000 ) ;
#2 = LOCAL_TIME ( 8, 22, 40.00000000000000000, #34 ) ;
#3 = ADVANCED_FACE ( 'NONE', ( #23 ), #16, .T. ) ;
#4 = APPROVAL_PERSON_ORGANIZATION ( #45, #60, #9 ) ;
#5 = PRODUCT_DEFINITION ( 'UNKNOWN', '', #86, #28 ) ;
#6 = EDGE_CURVE ( 'NONE', #17, #112, #161, .T. ) ;
#7 = PERSON_AND_ORGANIZATION_ROLE ( 'creator' ) ;
#8 = EDGE_LOOP ( 'NONE', ( #63, #77 ) ) ;
#9 = APPROVAL_ROLE ( '' ) ;
#10 = PERSON_AND_ORGANIZATION_ROLE ( 'design_owner' ) ;
#11 = APPROVAL_ROLE ( '' ) ;
#12 = DATE_TIME_ROLE ( 'creation_date' ) ;
#13 = EDGE_LOOP ( 'NONE', ( #33, #143, #50, #30 ) ) ;
#14 = APPROVAL_DATE_TIME ( #19, #20 ) ;
#15 = CARTESIAN_POINT ( 'NONE',  ( 10.00000000000000000, 1.224646799147353300E-015, 2.000000000000000000 ) ) ;
#16 = PLANE ( 'NONE',  #155 ) ;
#17 = VERTEX_POINT ( 'NONE', #15 ) ;
#18 = CALENDAR_DATE ( 2017, 1, 2 ) ;
#19 = DATE_AND_TIME ( #125, #100 ) ;
#20 = APPROVAL ( #27, 'UNSPECIFIED' ) ;
#21 = PERSON_AND_ORGANIZATION ( #56, #57 ) ;
#22 = ADVANCED_FACE ( 'NONE', ( #134 ), #94, .T. ) ;
#23 = FACE_OUTER_BOUND ( 'NONE', #36, .T. ) ;
#24 = PERSON_AND_ORGANIZATION ( #56, #57 ) ;
#25 = PERSON_AND_ORGANIZATION_ROLE ( 'classification_officer' ) ;
#26 = EDGE_CURVE ( 'NONE', #132, #112, #138, .T. ) ;
#27 = APPROVAL_STATUS ( 'not_yet_approved' ) ;
#28 = DESIGN_CONTEXT ( 'detailed design', #29, 'design' ) ;
#29 = APPLICATION_CONTEXT ( 'configuration controlled 3d designs of mechanical parts and assemblies' ) ;
#30 = ORIENTED_EDGE ( 'NONE', *, *, #26, .T. ) ;
#31 = PERSON_AND_ORGANIZATION_ROLE ( 'creator' ) ;
#32 = CC_DESIGN_APPROVAL ( #20, ( #5 ) ) ;
#33 = ORIENTED_EDGE ( 'NONE', *, *, #6, .F. ) ;
#34 = COORDINATED_UNIVERSAL_TIME_OFFSET ( 5, 0, .BEHIND. ) ;
#35 = DIRECTION ( 'NONE',  ( 1.000000000000000000, 0.0000000000000000000, 0.0000000000000000000 ) ) ;
#36 = EDGE_LOOP ( 'NONE', ( #39, #150 ) ) ;
#37 = CARTESIAN_POINT ( 'NONE',  ( -10.00000000000000000, 0.0000000000000000000, 2.000000000000000000 ) ) ;
#38 = CARTESIAN_POINT ( 'NONE',  ( 0.0000000000000000000, 0.0000000000000000000, 2.000000000000000000 ) ) ;
#39 = ORIENTED_EDGE ( 'NONE', *, *, #163, .T. ) ;
#40 = APPROVAL_DATE_TIME ( #93, #60 ) ;
#41 = CC_DESIGN_DATE_AND_TIME_ASSIGNMENT ( #146, #171, ( #142 ) ) ;
#42 = FACE_OUTER_BOUND ( 'NONE', #8, .T. ) ;
#43 = FACE_OUTER_BOUND ( 'NONE', #68, .T. ) ;
#44 = CARTESIAN_POINT ( 'NONE',  ( -10.00000000000000000, 0.0000000000000000000, 2.000000000000000000 ) ) ;
#45 = PERSON_AND_ORGANIZATION ( #56, #57 ) ;
#46 = DIRECTION ( 'NONE',  ( -1.000000000000000000, 0.0000000000000000000, 0.0000000000000000000 ) ) ;
#47 = DIRECTION ( 'NONE',  ( -0.0000000000000000000, -0.0000000000000000000, -1.000000000000000000 ) ) ;
#48 = PRODUCT_DEFINITION_SHAPE ( 'NONE', 'NONE',  #5 ) ;
#49 = CARTESIAN_POINT ( 'NONE',  ( 0.0000000000000000000, 0.0000000000000000000, 2.000000000000000000 ) ) ;
#50 = ORIENTED_EDGE ( 'NONE', *, *, #154, .T. ) ;
#51 = DIRECTION ( 'NONE',  ( 1.000000000000000000, 0.0000000000000000000, 0.0000000000000000000 ) ) ;
#52 = CC_DESIGN_SECURITY_CLASSIFICATION ( #142, ( #86 ) ) ;
#53 = ADVANCED_FACE ( 'NONE', ( #43 ), #121, .T. ) ;
#54 = AXIS2_PLACEMENT_3D ( 'NONE', #73, #174, #35 ) ;
#55 = CIRCLE ( 'NONE', #105, 10.00000000000000000 ) ;
#56 = PERSON ( 'UNSPECIFIED', 'UNSPECIFIED', 'UNSPECIFIED', ('UNSPECIFIED'), ('UNSPECIFIED'), ('UNSPECIFIED') ) ;
#57 = ORGANIZATION ( 'UNSPECIFIED', 'UNSPECIFIED', '' ) ;
#58 = DIRECTION ( 'NONE',  ( 0.0000000000000000000, 0.0000000000000000000, 1.000000000000000000 ) ) ;
#59 = CARTESIAN_POINT ( 'NONE',  ( 0.0000000000000000000, 0.0000000000000000000, 0.0000000000000000000 ) ) ;
#60 = APPROVAL ( #123, 'UNSPECIFIED' ) ;
#61 = CALENDAR_DATE ( 2017, 1, 2 ) ;
#62 = CARTESIAN_POINT ( 'NONE',  ( 10.00000000000000000, 1.224646799147353300E-015, 0.0000000000000000000 ) ) ;
#63 = ORIENTED_EDGE ( 'NONE', *, *, #26, .F. ) ;
#64 =( NAMED_UNIT ( * ) PLANE_ANGLE_UNIT ( ) SI_UNIT ( $, .RADIAN. ) );
#65 = ADVANCED_FACE ( 'NONE', ( #42 ), #87, .F. ) ;
#66 = CLOSED_SHELL ( 'NONE', ( #53, #22, #3, #65 ) ) ;
#67 = PRODUCT ( 'Web Model 68500', 'Web Model 68500', '', ( #83 ) ) ;
#68 = EDGE_LOOP ( 'NONE', ( #98, #70, #80, #169 ) ) ;
#69 = DIRECTION ( 'NONE',  ( 1.000000000000000000, 0.0000000000000000000, 0.0000000000000000000 ) ) ;
#70 = ORIENTED_EDGE ( 'NONE', *, *, #6, .T. ) ;
#71 = CC_DESIGN_PERSON_AND_ORGANIZATION_ASSIGNMENT ( #136, #81, ( #86 ) ) ;
#72 = COORDINATED_UNIVERSAL_TIME_OFFSET ( 5, 0, .BEHIND. ) ;
#73 = CARTESIAN_POINT ( 'NONE',  ( 0.0000000000000000000, 0.0000000000000000000, 0.0000000000000000000 ) ) ;
#74 = CARTESIAN_POINT ( 'NONE',  ( 0.0000000000000000000, 0.0000000000000000000, 2.000000000000000000 ) ) ;
#75 = DIRECTION ( 'NONE',  ( 0.0000000000000000000, 0.0000000000000000000, 1.000000000000000000 ) ) ;
#76 = CC_DESIGN_PERSON_AND_ORGANIZATION_ASSIGNMENT ( #85, #31, ( #5 ) ) ;
#77 = ORIENTED_EDGE ( 'NONE', *, *, #120, .F. ) ;
#78 = APPLICATION_CONTEXT ( 'configuration controlled 3d designs of mechanical parts and assemblies' ) ;
#79 = PRODUCT_RELATED_PRODUCT_CATEGORY ( 'detail', '', ( #67 ) ) ;
#80 = ORIENTED_EDGE ( 'NONE', *, *, #120, .T. ) ;
#81 = PERSON_AND_ORGANIZATION_ROLE ( 'design_supplier' ) ;
#82 = SHAPE_DEFINITION_REPRESENTATION ( #48, #104 ) ;
#83 = MECHANICAL_CONTEXT ( 'NONE', #78, 'mechanical' ) ;
#84 = LINE ( 'NONE', #44, #119 ) ;
#85 = PERSON_AND_ORGANIZATION ( #56, #57 ) ;
#86 = PRODUCT_DEFINITION_FORMATION_WITH_SPECIFIED_SOURCE ( 'ANY', '', #67, .NOT_KNOWN. ) ;
#87 = PLANE ( 'NONE',  #148 ) ;
#88 = CALENDAR_DATE ( 2017, 1, 2 ) ;
#89 = DIRECTION ( 'NONE',  ( 0.0000000000000000000, 0.0000000000000000000, 1.000000000000000000 ) ) ;
#90 = DIRECTION ( 'NONE',  ( 0.0000000000000000000, 0.0000000000000000000, 1.000000000000000000 ) ) ;
#91 = AXIS2_PLACEMENT_3D ( 'NONE', #38, #129, #51 ) ;
#92 = PERSON_AND_ORGANIZATION ( #56, #57 ) ;
#93 = DATE_AND_TIME ( #126, #116 ) ;
#94 = CYLINDRICAL_SURFACE ( 'NONE', #99, 10.00000000000000000 ) ;
#95 = CC_DESIGN_DATE_AND_TIME_ASSIGNMENT ( #144, #12, ( #5 ) ) ;
#96 = LOCAL_TIME ( 8, 22, 40.00000000000000000, #72 ) ;
#97 = CARTESIAN_POINT ( 'NONE',  ( 0.0000000000000000000, 0.0000000000000000000, 0.0000000000000000000 ) ) ;
#98 = ORIENTED_EDGE ( 'NONE', *, *, #170, .F. ) ;
#99 = AXIS2_PLACEMENT_3D ( 'NONE', #101, #147, #46 ) ;
#100 = LOCAL_TIME ( 8, 22, 40.00000000000000000, #168 ) ;
#101 = CARTESIAN_POINT ( 'NONE',  ( 0.0000000000000000000, 0.0000000000000000000, 2.000000000000000000 ) ) ;
#102 = DIRECTION ( 'NONE',  ( 1.000000000000000000, 0.0000000000000000000, 0.0000000000000000000 ) ) ;
#103 = AXIS2_PLACEMENT_3D ( 'NONE', #74, #47, #139 ) ;
#104 = ADVANCED_BREP_SHAPE_REPRESENTATION ( 'Web Model 68500', ( #160, #122 ), #145 ) ;
#105 = AXIS2_PLACEMENT_3D ( 'NONE', #49, #131, #118 ) ;
#106 = CC_DESIGN_APPROVAL ( #60, ( #142 ) ) ;
#107 = PERSON_AND_ORGANIZATION ( #56, #57 ) ;
#108 = APPROVAL_STATUS ( 'not_yet_approved' ) ;
#109 = CIRCLE ( 'NONE', #91, 10.00000000000000000 ) ;
#110 = APPROVAL ( #108, 'UNSPECIFIED' ) ;
#111 = DIRECTION ( 'NONE',  ( 1.000000000000000000, 0.0000000000000000000, -0.0000000000000000000 ) ) ;
#112 = VERTEX_POINT ( 'NONE', #62 ) ;
#113 = CARTESIAN_POINT ( 'NONE',  ( -10.00000000000000000, 0.0000000000000000000, 0.0000000000000000000 ) ) ;
#114 = VERTEX_POINT ( 'NONE', #37 ) ;
#115 =( LENGTH_UNIT ( ) NAMED_UNIT ( * ) SI_UNIT ( .MILLI., .METRE. ) );
#116 = LOCAL_TIME ( 8, 22, 40.00000000000000000, #158 ) ;
#117 = CC_DESIGN_PERSON_AND_ORGANIZATION_ASSIGNMENT ( #92, #25, ( #142 ) ) ;
#118 = DIRECTION ( 'NONE',  ( 1.000000000000000000, 0.0000000000000000000, 0.0000000000000000000 ) ) ;
#119 = VECTOR ( 'NONE', #175, 1000.000000000000000 ) ;
#120 = EDGE_CURVE ( 'NONE', #112, #132, #1, .T. ) ;
#121 = CYLINDRICAL_SURFACE ( 'NONE', #103, 10.00000000000000000 ) ;
#122 = AXIS2_PLACEMENT_3D ( 'NONE', #97, #58, #69 ) ;
#123 = APPROVAL_STATUS ( 'not_yet_approved' ) ;
#124 = APPROVAL_DATE_TIME ( #156, #110 ) ;
#125 = CALENDAR_DATE ( 2017, 1, 2 ) ;
#126 = CALENDAR_DATE ( 2017, 1, 2 ) ;
#127 = CARTESIAN_POINT ( 'NONE',  ( 10.00000000000000000, 1.224646799147353300E-015, 2.000000000000000000 ) ) ;
#128 = VECTOR ( 'NONE', #165, 1000.000000000000000 ) ;
#129 = DIRECTION ( 'NONE',  ( 0.0000000000000000000, 0.0000000000000000000, 1.000000000000000000 ) ) ;
#130 = CC_DESIGN_APPROVAL ( #110, ( #86 ) ) ;
#131 = DIRECTION ( 'NONE',  ( 0.0000000000000000000, 0.0000000000000000000, 1.000000000000000000 ) ) ;
#132 = VERTEX_POINT ( 'NONE', #113 ) ;
#133 = AXIS2_PLACEMENT_3D ( 'NONE', #137, #89, #102 ) ;
#134 = FACE_OUTER_BOUND ( 'NONE', #13, .T. ) ;
#135 = CC_DESIGN_PERSON_AND_ORGANIZATION_ASSIGNMENT ( #107, #7, ( #86 ) ) ;
#136 = PERSON_AND_ORGANIZATION ( #56, #57 ) ;
#137 = CARTESIAN_POINT ( 'NONE',  ( 0.0000000000000000000, 0.0000000000000000000, 0.0000000000000000000 ) ) ;
#138 = CIRCLE ( 'NONE', #133, 10.00000000000000000 ) ;
#139 = DIRECTION ( 'NONE',  ( -1.000000000000000000, 0.0000000000000000000, 0.0000000000000000000 ) ) ;
#140 = UNCERTAINTY_MEASURE_WITH_UNIT (LENGTH_MEASURE( 1.000000000000000100E-005 ), #115, 'distance_accuracy_value', 'NONE');
#141 = COORDINATED_UNIVERSAL_TIME_OFFSET ( 5, 0, .BEHIND. ) ;
#142 = SECURITY_CLASSIFICATION ( '', '', #162 ) ;
#143 = ORIENTED_EDGE ( 'NONE', *, *, #163, .F. ) ;
#144 = DATE_AND_TIME ( #61, #2 ) ;
#145 =( GEOMETRIC_REPRESENTATION_CONTEXT ( 3 ) GLOBAL_UNCERTAINTY_ASSIGNED_CONTEXT ( ( #140 ) ) GLOBAL_UNIT_ASSIGNED_CONTEXT ( ( #115, #64, #152 ) ) REPRESENTATION_CONTEXT ( 'NONE', 'WORKASPACE' ) );
#146 = DATE_AND_TIME ( #88, #96 ) ;
#147 = DIRECTION ( 'NONE',  ( -0.0000000000000000000, -0.0000000000000000000, -1.000000000000000000 ) ) ;
#148 = AXIS2_PLACEMENT_3D ( 'NONE', #59, #90, #111 ) ;
#149 = LOCAL_TIME ( 8, 22, 40.00000000000000000, #141 ) ;
#150 = ORIENTED_EDGE ( 'NONE', *, *, #170, .T. ) ;
#151 = DIRECTION ( 'NONE',  ( 1.000000000000000000, 0.0000000000000000000, -0.0000000000000000000 ) ) ;
#152 =( NAMED_UNIT ( * ) SI_UNIT ( $, .STERADIAN. ) SOLID_ANGLE_UNIT ( ) );
#153 = APPROVAL_PERSON_ORGANIZATION ( #157, #20, #159 ) ;
#154 = EDGE_CURVE ( 'NONE', #114, #132, #84, .T. ) ;
#155 = AXIS2_PLACEMENT_3D ( 'NONE', #166, #75, #151 ) ;
#156 = DATE_AND_TIME ( #18, #149 ) ;
#157 = PERSON_AND_ORGANIZATION ( #56, #57 ) ;
#158 = COORDINATED_UNIVERSAL_TIME_OFFSET ( 5, 0, .BEHIND. ) ;
#159 = APPROVAL_ROLE ( '' ) ;
#160 = MANIFOLD_SOLID_BREP ( 'Extrude1', #66 ) ;
#161 = LINE ( 'NONE', #127, #128 ) ;
#162 = SECURITY_CLASSIFICATION_LEVEL ( 'unclassified' ) ;
#163 = EDGE_CURVE ( 'NONE', #114, #17, #109, .T. ) ;
#164 = APPROVAL_PERSON_ORGANIZATION ( #24, #110, #11 ) ;
#165 = DIRECTION ( 'NONE',  ( -0.0000000000000000000, -0.0000000000000000000, -1.000000000000000000 ) ) ;
#166 = CARTESIAN_POINT ( 'NONE',  ( 0.0000000000000000000, 0.0000000000000000000, 2.000000000000000000 ) ) ;
#167 = APPLICATION_PROTOCOL_DEFINITION ( 'international standard', 'config_control_design', 1994, #78 ) ;
#168 = COORDINATED_UNIVERSAL_TIME_OFFSET ( 5, 0, .BEHIND. ) ;
#169 = ORIENTED_EDGE ( 'NONE', *, *, #154, .F. ) ;
#170 = EDGE_CURVE ( 'NONE', #17, #114, #55, .T. ) ;
#171 = DATE_TIME_ROLE ( 'classification_date' ) ;
#172 = APPLICATION_PROTOCOL_DEFINITION ( 'international standard', 'config_control_design', 1994, #29 ) ;
#173 = CC_DESIGN_PERSON_AND_ORGANIZATION_ASSIGNMENT ( #21, #10, ( #67 ) ) ;
#174 = DIRECTION ( 'NONE',  ( 0.0000000000000000000, 0.0000000000000000000, 1.000000000000000000 ) ) ;
#175 = DIRECTION ( 'NONE',  ( -0.0000000000000000000, -0.0000000000000000000, -1.000000000000000000 ) ) ;
ENDSEC;
END-ISO-10303-21;
