ISO-10303-21;
HEADER;
FILE_DESCRIPTION (( 'STEP AP203' ),
    '1' );
FILE_NAME ('Web Model 11877_11880.step',
    '2019-01-02T18:29:11',
    ( '' ),
    ( '' ),
    'SwSTEP 2.0',
    'SolidWorks 2016',
    '' );
FILE_SCHEMA (( 'CONFIG_CONTROL_DESIGN' ));
ENDSEC;

DATA;
#1 = PERSON_AND_ORGANIZATION ( #69, #168 ) ;
#2 = AXIS2_PLACEMENT_3D ( 'NONE', #63, #89, #229 ) ;
#3 = EDGE_CURVE ( 'NONE', #223, #55, #209, .T. ) ;
#4 = CARTESIAN_POINT ( 'NONE',  ( -1.000000000000000000, 0.0000000000000000000, 0.0000000000000000000 ) ) ;
#5 = CARTESIAN_POINT ( 'NONE',  ( 1.000000000000000000, 1.524685264938455200E-015, -12.45000000000000300 ) ) ;
#6 = APPROVAL ( #187, 'UNSPECIFIED' ) ;
#7 = DIRECTION ( 'NONE',  ( 1.000000000000000000, -0.0000000000000000000, -0.0000000000000000000 ) ) ;
#8 = CARTESIAN_POINT ( 'NONE',  ( 1.000000000000000000, 0.0000000000000000000, 0.0000000000000000000 ) ) ;
#9 = AXIS2_PLACEMENT_3D ( 'NONE', #4, #247, #129 ) ;
#10 = APPROVAL_DATE_TIME ( #113, #6 ) ;
#11 = DIRECTION ( 'NONE',  ( -1.000000000000000000, 0.0000000000000000000, 0.0000000000000000000 ) ) ;
#12 = CALENDAR_DATE ( 2019, 2, 1 ) ;
#13 = DIRECTION ( 'NONE',  ( 1.000000000000000000, 0.0000000000000000000, 0.0000000000000000000 ) ) ;
#14 = CARTESIAN_POINT ( 'NONE',  ( 1.000000000000000000, 0.0000000000000000000, 0.0000000000000000000 ) ) ;
#15 = CALENDAR_DATE ( 2019, 2, 1 ) ;
#16 = CC_DESIGN_PERSON_AND_ORGANIZATION_ASSIGNMENT ( #121, #32, ( #159 ) ) ;
#17 = ORIENTED_EDGE ( 'NONE', *, *, #273, .F. ) ;
#18 = VECTOR ( 'NONE', #103, 1000.000000000000000 ) ;
#19 = CC_DESIGN_APPROVAL ( #6, ( #40 ) ) ;
#20 = CALENDAR_DATE ( 2019, 2, 1 ) ;
#21 = CC_DESIGN_APPROVAL ( #240, ( #206 ) ) ;
#22 = VECTOR ( 'NONE', #149, 1000.000000000000000 ) ;
#23 = ORIENTED_EDGE ( 'NONE', *, *, #99, .T. ) ;
#24 = DIRECTION ( 'NONE',  ( -1.000000000000000000, 0.0000000000000000000, 0.0000000000000000000 ) ) ;
#25 = CARTESIAN_POINT ( 'NONE',  ( -0.9499999999999968500, 0.0000000000000000000, 0.0000000000000000000 ) ) ;
#26 = CC_DESIGN_PERSON_AND_ORGANIZATION_ASSIGNMENT ( #1, #66, ( #206 ) ) ;
#27 = CARTESIAN_POINT ( 'NONE',  ( -1.000000000000000000, 0.0000000000000000000, -12.44999999999999900 ) ) ;
#28 = AXIS2_PLACEMENT_3D ( 'NONE', #265, #152, #29 ) ;
#29 = DIRECTION ( 'NONE',  ( 0.0000000000000000000, 0.0000000000000000000, -1.000000000000000000 ) ) ;
#30 = ORIENTED_EDGE ( 'NONE', *, *, #87, .T. ) ;
#31 = ADVANCED_FACE ( 'NONE', ( #74 ), #53, .T. ) ;
#32 = PERSON_AND_ORGANIZATION_ROLE ( 'creator' ) ;
#33 = PRODUCT ( 'Web Model 11877_11880', 'Web Model 11877_11880', '', ( #270 ) ) ;
#34 = EDGE_LOOP ( 'NONE', ( #17, #197, #98, #117 ) ) ;
#35 =( LENGTH_UNIT ( ) NAMED_UNIT ( * ) SI_UNIT ( .MILLI., .METRE. ) );
#36 = CALENDAR_DATE ( 2019, 2, 1 ) ;
#37 = ORIENTED_EDGE ( 'NONE', *, *, #148, .T. ) ;
#38 = LINE ( 'NONE', #175, #239 ) ;
#39 = DESIGN_CONTEXT ( 'detailed design', #132, 'design' ) ;
#40 = SECURITY_CLASSIFICATION ( '', '', #231 ) ;
#41 = CC_DESIGN_DATE_AND_TIME_ASSIGNMENT ( #189, #48, ( #159 ) ) ;
#42 = FACE_OUTER_BOUND ( 'NONE', #114, .T. ) ;
#43 = CARTESIAN_POINT ( 'NONE',  ( -0.9499999999999968500, 0.0000000000000000000, 0.0000000000000000000 ) ) ;
#44 = APPROVAL_PERSON_ORGANIZATION ( #96, #153, #107 ) ;
#45 = PRODUCT_RELATED_PRODUCT_CATEGORY ( 'detail', '', ( #33 ) ) ;
#46 = CARTESIAN_POINT ( 'NONE',  ( 1.000000000000000000, 0.0000000000000000000, 0.0000000000000000000 ) ) ;
#47 = VERTEX_POINT ( 'NONE', #248 ) ;
#48 = DATE_TIME_ROLE ( 'creation_date' ) ;
#49 = EDGE_CURVE ( 'NONE', #64, #223, #252, .T. ) ;
#50 = APPROVAL_ROLE ( '' ) ;
#51 = DIRECTION ( 'NONE',  ( 1.000000000000000000, 0.0000000000000000000, 0.0000000000000000000 ) ) ;
#52 = ADVANCED_FACE ( 'NONE', ( #42 ), #56, .T. ) ;
#53 = CONICAL_SURFACE ( 'NONE', #195, 12.45000000000000300, 0.7853981633975003500 ) ;
#54 = EDGE_CURVE ( 'NONE', #47, #55, #201, .T. ) ;
#55 = VERTEX_POINT ( 'NONE', #83 ) ;
#56 = CONICAL_SURFACE ( 'NONE', #183, 12.50000000000000000, 0.7853981633974309600 ) ;
#57 = ORIENTED_EDGE ( 'NONE', *, *, #3, .F. ) ;
#58 = CARTESIAN_POINT ( 'NONE',  ( 1.000000000000000000, 0.0000000000000000000, 0.0000000000000000000 ) ) ;
#59 = DIRECTION ( 'NONE',  ( -0.7071067811865107100, 0.0000000000000000000, 0.7071067811865843200 ) ) ;
#60 = DIRECTION ( 'NONE',  ( 0.0000000000000000000, 0.0000000000000000000, 1.000000000000000000 ) ) ;
#61 = EDGE_CURVE ( 'NONE', #246, #127, #106, .T. ) ;
#62 = APPROVAL_STATUS ( 'not_yet_approved' ) ;
#63 = CARTESIAN_POINT ( 'NONE',  ( 0.0000000000000000000, 0.0000000000000000000, 0.0000000000000000000 ) ) ;
#64 = VERTEX_POINT ( 'NONE', #226 ) ;
#65 = LINE ( 'NONE', #85, #244 ) ;
#66 = PERSON_AND_ORGANIZATION_ROLE ( 'design_supplier' ) ;
#67 = ORIENTED_EDGE ( 'NONE', *, *, #186, .F. ) ;
#68 =( NAMED_UNIT ( * ) PLANE_ANGLE_UNIT ( ) SI_UNIT ( $, .RADIAN. ) );
#69 = PERSON ( 'UNSPECIFIED', 'UNSPECIFIED', 'UNSPECIFIED', ('UNSPECIFIED'), ('UNSPECIFIED'), ('UNSPECIFIED') ) ;
#70 = CARTESIAN_POINT ( 'NONE',  ( 1.000000000000000000, 0.0000000000000000000, 0.0000000000000000000 ) ) ;
#71 = APPROVAL_PERSON_ORGANIZATION ( #73, #6, #190 ) ;
#72 = LOCAL_TIME ( 13, 29, 11.00000000000000000, #118 ) ;
#73 = PERSON_AND_ORGANIZATION ( #69, #168 ) ;
#74 = FACE_OUTER_BOUND ( 'NONE', #34, .T. ) ;
#75 = CIRCLE ( 'NONE', #256, 12.50000000000000000 ) ;
#76 = ORIENTED_EDGE ( 'NONE', *, *, #61, .F. ) ;
#77 = CARTESIAN_POINT ( 'NONE',  ( 1.000000000000000000, 1.530808498934191500E-015, -12.50000000000000000 ) ) ;
#78 = DIRECTION ( 'NONE',  ( 0.0000000000000000000, 0.0000000000000000000, 1.000000000000000000 ) ) ;
#79 = VERTEX_POINT ( 'NONE', #124 ) ;
#80 = DIRECTION ( 'NONE',  ( 0.0000000000000000000, 0.0000000000000000000, -1.000000000000000000 ) ) ;
#81 = ORIENTED_EDGE ( 'NONE', *, *, #49, .F. ) ;
#82 = CARTESIAN_POINT ( 'NONE',  ( -0.9499999999999968500, 1.530808498934191500E-015, -12.50000000000000000 ) ) ;
#83 = CARTESIAN_POINT ( 'NONE',  ( 0.9500000000000072800, 1.530808498934191500E-015, -12.50000000000000000 ) ) ;
#84 = ORIENTED_EDGE ( 'NONE', *, *, #148, .F. ) ;
#85 = CARTESIAN_POINT ( 'NONE',  ( -0.9499999999999968500, 0.0000000000000000000, -12.50000000000000000 ) ) ;
#86 = DIRECTION ( 'NONE',  ( 0.7071067811865597900, 0.0000000000000000000, -0.7071067811865352500 ) ) ;
#87 = EDGE_CURVE ( 'NONE', #127, #246, #140, .T. ) ;
#88 = PERSON_AND_ORGANIZATION_ROLE ( 'classification_officer' ) ;
#89 = DIRECTION ( 'NONE',  ( 0.0000000000000000000, 0.0000000000000000000, 1.000000000000000000 ) ) ;
#90 = CONICAL_SURFACE ( 'NONE', #167, 12.50000000000000000, 0.7853981633974309600 ) ;
#91 = ADVANCED_FACE ( 'NONE', ( #97 ), #90, .T. ) ;
#92 = ORIENTED_EDGE ( 'NONE', *, *, #269, .F. ) ;
#93 = AXIS2_PLACEMENT_3D ( 'NONE', #263, #24, #78 ) ;
#94 = EDGE_LOOP ( 'NONE', ( #30, #166 ) ) ;
#95 = ORIENTED_EDGE ( 'NONE', *, *, #54, .T. ) ;
#96 = PERSON_AND_ORGANIZATION ( #69, #168 ) ;
#97 = FACE_OUTER_BOUND ( 'NONE', #213, .T. ) ;
#98 = ORIENTED_EDGE ( 'NONE', *, *, #54, .F. ) ;
#99 = EDGE_CURVE ( 'NONE', #55, #160, #157, .T. ) ;
#100 = DIRECTION ( 'NONE',  ( -1.000000000000000000, -0.0000000000000000000, -0.0000000000000000000 ) ) ;
#101 = FACE_OUTER_BOUND ( 'NONE', #94, .T. ) ;
#102 = EDGE_LOOP ( 'NONE', ( #258, #180, #37, #266 ) ) ;
#103 = DIRECTION ( 'NONE',  ( -1.000000000000000000, -0.0000000000000000000, -0.0000000000000000000 ) ) ;
#104 = DIRECTION ( 'NONE',  ( -1.000000000000000000, 0.0000000000000000000, 0.0000000000000000000 ) ) ;
#105 = PERSON_AND_ORGANIZATION ( #69, #168 ) ;
#106 = CIRCLE ( 'NONE', #9, 12.44999999999999900 ) ;
#107 = APPROVAL_ROLE ( '' ) ;
#108 = APPROVAL_STATUS ( 'not_yet_approved' ) ;
#109 = DIRECTION ( 'NONE',  ( 0.0000000000000000000, 0.0000000000000000000, -1.000000000000000000 ) ) ;
#110 = ORIENTED_EDGE ( 'NONE', *, *, #161, .F. ) ;
#111 = EDGE_CURVE ( 'NONE', #64, #47, #38, .T. ) ;
#112 = DIRECTION ( 'NONE',  ( 0.0000000000000000000, 0.0000000000000000000, -1.000000000000000000 ) ) ;
#113 = DATE_AND_TIME ( #36, #130 ) ;
#114 = EDGE_LOOP ( 'NONE', ( #67, #123, #257, #110 ) ) ;
#115 = CIRCLE ( 'NONE', #147, 12.45000000000000300 ) ;
#116 = CALENDAR_DATE ( 2019, 2, 1 ) ;
#117 = ORIENTED_EDGE ( 'NONE', *, *, #111, .F. ) ;
#118 = COORDINATED_UNIVERSAL_TIME_OFFSET ( 5, 0, .BEHIND. ) ;
#119 = CIRCLE ( 'NONE', #146, 12.50000000000000000 ) ;
#120 = ORIENTED_EDGE ( 'NONE', *, *, #111, .T. ) ;
#121 = PERSON_AND_ORGANIZATION ( #69, #168 ) ;
#122 = FACE_OUTER_BOUND ( 'NONE', #243, .T. ) ;
#123 = ORIENTED_EDGE ( 'NONE', *, *, #87, .F. ) ;
#124 = CARTESIAN_POINT ( 'NONE',  ( -0.9499999999999968500, 0.0000000000000000000, 12.50000000000000000 ) ) ;
#125 = AXIS2_PLACEMENT_3D ( 'NONE', #202, #227, #173 ) ;
#126 = DIRECTION ( 'NONE',  ( 1.000000000000000000, 0.0000000000000000000, 0.0000000000000000000 ) ) ;
#127 = VERTEX_POINT ( 'NONE', #27 ) ;
#128 = CARTESIAN_POINT ( 'NONE',  ( -0.9499999999999968500, 1.530808498934191500E-015, 12.50000000000000000 ) ) ;
#129 = DIRECTION ( 'NONE',  ( 0.0000000000000000000, 0.0000000000000000000, -1.000000000000000000 ) ) ;
#130 = LOCAL_TIME ( 13, 29, 11.00000000000000000, #250 ) ;
#131 = CC_DESIGN_PERSON_AND_ORGANIZATION_ASSIGNMENT ( #228, #88, ( #40 ) ) ;
#132 = APPLICATION_CONTEXT ( 'configuration controlled 3d designs of mechanical parts and assemblies' ) ;
#133 = APPROVAL_PERSON_ORGANIZATION ( #238, #240, #50 ) ;
#134 = DIRECTION ( 'NONE',  ( 0.0000000000000000000, 0.0000000000000000000, -1.000000000000000000 ) ) ;
#135 = AXIS2_PLACEMENT_3D ( 'NONE', #203, #126, #224 ) ;
#136 = ORIENTED_EDGE ( 'NONE', *, *, #273, .T. ) ;
#137 = APPLICATION_PROTOCOL_DEFINITION ( 'international standard', 'config_control_design', 1994, #207 ) ;
#138 = DIRECTION ( 'NONE',  ( 1.000000000000000000, 0.0000000000000000000, 0.0000000000000000000 ) ) ;
#139 = ADVANCED_FACE ( 'NONE', ( #234 ), #163, .T. ) ;
#140 = CIRCLE ( 'NONE', #28, 12.44999999999999900 ) ;
#141 = CC_DESIGN_PERSON_AND_ORGANIZATION_ASSIGNMENT ( #232, #255, ( #33 ) ) ;
#142 = ORIENTED_EDGE ( 'NONE', *, *, #220, .F. ) ;
#143 = FACE_OUTER_BOUND ( 'NONE', #151, .T. ) ;
#144 = CC_DESIGN_SECURITY_CLASSIFICATION ( #40, ( #206 ) ) ;
#145 = ORIENTED_EDGE ( 'NONE', *, *, #164, .F. ) ;
#146 = AXIS2_PLACEMENT_3D ( 'NONE', #25, #172, #198 ) ;
#147 = AXIS2_PLACEMENT_3D ( 'NONE', #46, #51, #109 ) ;
#148 = EDGE_CURVE ( 'NONE', #47, #79, #259, .T. ) ;
#149 = DIRECTION ( 'NONE',  ( -0.7071067811865107100, 8.659560562355384000E-017, -0.7071067811865843200 ) ) ;
#150 = CARTESIAN_POINT ( 'NONE',  ( -0.9499999999999968500, 0.0000000000000000000, 0.0000000000000000000 ) ) ;
#151 = EDGE_LOOP ( 'NONE', ( #169, #136 ) ) ;
#152 = DIRECTION ( 'NONE',  ( -1.000000000000000000, -0.0000000000000000000, -0.0000000000000000000 ) ) ;
#153 = APPROVAL ( #62, 'UNSPECIFIED' ) ;
#154 = DIRECTION ( 'NONE',  ( -1.000000000000000000, -0.0000000000000000000, -0.0000000000000000000 ) ) ;
#155 = PLANE ( 'NONE',  #174 ) ;
#156 = LOCAL_TIME ( 13, 29, 11.00000000000000000, #221 ) ;
#157 = LINE ( 'NONE', #77, #217 ) ;
#158 = CARTESIAN_POINT ( 'NONE',  ( -0.9499999999999968500, 0.0000000000000000000, 0.0000000000000000000 ) ) ;
#159 = PRODUCT_DEFINITION ( 'UNKNOWN', '', #206, #39 ) ;
#160 = VERTEX_POINT ( 'NONE', #82 ) ;
#161 = EDGE_CURVE ( 'NONE', #79, #160, #119, .T. ) ;
#162 = COORDINATED_UNIVERSAL_TIME_OFFSET ( 5, 0, .BEHIND. ) ;
#163 = CONICAL_SURFACE ( 'NONE', #93, 12.45000000000000300, 0.7853981633975003500 ) ;
#164 = EDGE_CURVE ( 'NONE', #160, #79, #188, .T. ) ;
#165 = APPROVAL_DATE_TIME ( #241, #240 ) ;
#166 = ORIENTED_EDGE ( 'NONE', *, *, #61, .T. ) ;
#167 = AXIS2_PLACEMENT_3D ( 'NONE', #43, #196, #176 ) ;
#168 = ORGANIZATION ( 'UNSPECIFIED', 'UNSPECIFIED', '' ) ;
#169 = ORIENTED_EDGE ( 'NONE', *, *, #49, .T. ) ;
#170 = CARTESIAN_POINT ( 'NONE',  ( 1.000000000000000000, 1.527746881936323400E-015, -12.45000000000000300 ) ) ;
#171 = AXIS2_PLACEMENT_3D ( 'NONE', #70, #204, #268 ) ;
#172 = DIRECTION ( 'NONE',  ( 1.000000000000000000, -0.0000000000000000000, -0.0000000000000000000 ) ) ;
#173 = DIRECTION ( 'NONE',  ( 0.0000000000000000000, 0.0000000000000000000, -1.000000000000000000 ) ) ;
#174 = AXIS2_PLACEMENT_3D ( 'NONE', #14, #138, #233 ) ;
#175 = CARTESIAN_POINT ( 'NONE',  ( 1.000000000000000000, 0.0000000000000000000, 12.45000000000000300 ) ) ;
#176 = DIRECTION ( 'NONE',  ( 0.0000000000000000000, 0.0000000000000000000, -1.000000000000000000 ) ) ;
#177 = ADVANCED_BREP_SHAPE_REPRESENTATION ( 'Web Model 11877_11880', ( #192, #2 ), #216 ) ;
#178 = APPLICATION_PROTOCOL_DEFINITION ( 'international standard', 'config_control_design', 1994, #132 ) ;
#179 = SHAPE_DEFINITION_REPRESENTATION ( #200, #177 ) ;
#180 = ORIENTED_EDGE ( 'NONE', *, *, #220, .T. ) ;
#181 = COORDINATED_UNIVERSAL_TIME_OFFSET ( 5, 0, .BEHIND. ) ;
#182 = FACE_OUTER_BOUND ( 'NONE', #102, .T. ) ;
#183 = AXIS2_PLACEMENT_3D ( 'NONE', #150, #7, #80 ) ;
#184 = CARTESIAN_POINT ( 'NONE',  ( -1.000000000000000000, 0.0000000000000000000, 0.0000000000000000000 ) ) ;
#185 = CARTESIAN_POINT ( 'NONE',  ( -1.000000000000000000, 1.527746881936323000E-015, 12.44999999999999900 ) ) ;
#186 = EDGE_CURVE ( 'NONE', #246, #79, #214, .T. ) ;
#187 = APPROVAL_STATUS ( 'not_yet_approved' ) ;
#188 = CIRCLE ( 'NONE', #245, 12.50000000000000000 ) ;
#189 = DATE_AND_TIME ( #12, #194 ) ;
#190 = APPROVAL_ROLE ( '' ) ;
#191 = AXIS2_PLACEMENT_3D ( 'NONE', #8, #154, #271 ) ;
#192 = MANIFOLD_SOLID_BREP ( 'Chamfer1', #249 ) ;
#193 = DATE_AND_TIME ( #20, #225 ) ;
#194 = LOCAL_TIME ( 13, 29, 11.00000000000000000, #181 ) ;
#195 = AXIS2_PLACEMENT_3D ( 'NONE', #58, #104, #60 ) ;
#196 = DIRECTION ( 'NONE',  ( 1.000000000000000000, -0.0000000000000000000, -0.0000000000000000000 ) ) ;
#197 = ORIENTED_EDGE ( 'NONE', *, *, #3, .T. ) ;
#198 = DIRECTION ( 'NONE',  ( 0.0000000000000000000, 0.0000000000000000000, -1.000000000000000000 ) ) ;
#199 = CYLINDRICAL_SURFACE ( 'NONE', #191, 12.50000000000000000 ) ;
#200 = PRODUCT_DEFINITION_SHAPE ( 'NONE', 'NONE',  #159 ) ;
#201 = CIRCLE ( 'NONE', #125, 12.50000000000000000 ) ;
#202 = CARTESIAN_POINT ( 'NONE',  ( 0.9500000000000072800, 0.0000000000000000000, 0.0000000000000000000 ) ) ;
#203 = CARTESIAN_POINT ( 'NONE',  ( 1.000000000000000000, 0.0000000000000000000, 0.0000000000000000000 ) ) ;
#204 = DIRECTION ( 'NONE',  ( -1.000000000000000000, -0.0000000000000000000, -0.0000000000000000000 ) ) ;
#205 = ORIENTED_EDGE ( 'NONE', *, *, #164, .T. ) ;
#206 = PRODUCT_DEFINITION_FORMATION_WITH_SPECIFIED_SOURCE ( 'ANY', '', #33, .NOT_KNOWN. ) ;
#207 = APPLICATION_CONTEXT ( 'configuration controlled 3d designs of mechanical parts and assemblies' ) ;
#208 = ADVANCED_FACE ( 'NONE', ( #101 ), #260, .F. ) ;
#209 = LINE ( 'NONE', #5, #22 ) ;
#210 = PERSON_AND_ORGANIZATION_ROLE ( 'creator' ) ;
#211 = CARTESIAN_POINT ( 'NONE',  ( 0.9500000000000072800, 0.0000000000000000000, 0.0000000000000000000 ) ) ;
#212 = DIRECTION ( 'NONE',  ( 0.7071067811865597900, 8.659560562354782500E-017, 0.7071067811865352500 ) ) ;
#213 = EDGE_LOOP ( 'NONE', ( #76, #219, #145, #92 ) ) ;
#214 = LINE ( 'NONE', #128, #274 ) ;
#215 = AXIS2_PLACEMENT_3D ( 'NONE', #184, #13, #134 ) ;
#216 =( GEOMETRIC_REPRESENTATION_CONTEXT ( 3 ) GLOBAL_UNCERTAINTY_ASSIGNED_CONTEXT ( ( #218 ) ) GLOBAL_UNIT_ASSIGNED_CONTEXT ( ( #35, #68, #254 ) ) REPRESENTATION_CONTEXT ( 'NONE', 'WORKASPACE' ) );
#217 = VECTOR ( 'NONE', #100, 1000.000000000000000 ) ;
#218 = UNCERTAINTY_MEASURE_WITH_UNIT (LENGTH_MEASURE( 1.000000000000000100E-005 ), #35, 'distance_accuracy_value', 'NONE');
#219 = ORIENTED_EDGE ( 'NONE', *, *, #186, .T. ) ;
#220 = EDGE_CURVE ( 'NONE', #55, #47, #75, .T. ) ;
#221 = COORDINATED_UNIVERSAL_TIME_OFFSET ( 5, 0, .BEHIND. ) ;
#222 = CYLINDRICAL_SURFACE ( 'NONE', #171, 12.50000000000000000 ) ;
#223 = VERTEX_POINT ( 'NONE', #170 ) ;
#224 = DIRECTION ( 'NONE',  ( 0.0000000000000000000, 0.0000000000000000000, -1.000000000000000000 ) ) ;
#225 = LOCAL_TIME ( 13, 29, 11.00000000000000000, #162 ) ;
#226 = CARTESIAN_POINT ( 'NONE',  ( 1.000000000000000000, 0.0000000000000000000, 12.45000000000000300 ) ) ;
#227 = DIRECTION ( 'NONE',  ( -1.000000000000000000, 0.0000000000000000000, 0.0000000000000000000 ) ) ;
#228 = PERSON_AND_ORGANIZATION ( #69, #168 ) ;
#229 = DIRECTION ( 'NONE',  ( 1.000000000000000000, 0.0000000000000000000, 0.0000000000000000000 ) ) ;
#230 = ADVANCED_FACE ( 'NONE', ( #122 ), #222, .T. ) ;
#231 = SECURITY_CLASSIFICATION_LEVEL ( 'unclassified' ) ;
#232 = PERSON_AND_ORGANIZATION ( #69, #168 ) ;
#233 = DIRECTION ( 'NONE',  ( 0.0000000000000000000, 0.0000000000000000000, -1.000000000000000000 ) ) ;
#234 = FACE_OUTER_BOUND ( 'NONE', #275, .T. ) ;
#235 = ADVANCED_FACE ( 'NONE', ( #182 ), #199, .T. ) ;
#236 = DIRECTION ( 'NONE',  ( 0.0000000000000000000, 0.0000000000000000000, -1.000000000000000000 ) ) ;
#237 = ADVANCED_FACE ( 'NONE', ( #143 ), #155, .T. ) ;
#238 = PERSON_AND_ORGANIZATION ( #69, #168 ) ;
#239 = VECTOR ( 'NONE', #59, 1000.000000000000000 ) ;
#240 = APPROVAL ( #108, 'UNSPECIFIED' ) ;
#241 = DATE_AND_TIME ( #15, #72 ) ;
#242 = CC_DESIGN_APPROVAL ( #153, ( #159 ) ) ;
#243 = EDGE_LOOP ( 'NONE', ( #95, #23, #205, #84 ) ) ;
#244 = VECTOR ( 'NONE', #86, 1000.000000000000000 ) ;
#245 = AXIS2_PLACEMENT_3D ( 'NONE', #158, #267, #112 ) ;
#246 = VERTEX_POINT ( 'NONE', #185 ) ;
#247 = DIRECTION ( 'NONE',  ( -1.000000000000000000, -0.0000000000000000000, -0.0000000000000000000 ) ) ;
#248 = CARTESIAN_POINT ( 'NONE',  ( 0.9500000000000072800, 0.0000000000000000000, 12.50000000000000000 ) ) ;
#249 = CLOSED_SHELL ( 'NONE', ( #91, #31, #230, #235, #237, #208, #139, #52 ) ) ;
#250 = COORDINATED_UNIVERSAL_TIME_OFFSET ( 5, 0, .BEHIND. ) ;
#251 = APPROVAL_DATE_TIME ( #193, #153 ) ;
#252 = CIRCLE ( 'NONE', #135, 12.45000000000000300 ) ;
#253 = DATE_TIME_ROLE ( 'classification_date' ) ;
#254 =( NAMED_UNIT ( * ) SI_UNIT ( $, .STERADIAN. ) SOLID_ANGLE_UNIT ( ) );
#255 = PERSON_AND_ORGANIZATION_ROLE ( 'design_owner' ) ;
#256 = AXIS2_PLACEMENT_3D ( 'NONE', #211, #11, #236 ) ;
#257 = ORIENTED_EDGE ( 'NONE', *, *, #269, .T. ) ;
#258 = ORIENTED_EDGE ( 'NONE', *, *, #99, .F. ) ;
#259 = LINE ( 'NONE', #264, #18 ) ;
#260 = PLANE ( 'NONE',  #215 ) ;
#261 = DATE_AND_TIME ( #116, #156 ) ;
#262 = CC_DESIGN_PERSON_AND_ORGANIZATION_ASSIGNMENT ( #105, #210, ( #206 ) ) ;
#263 = CARTESIAN_POINT ( 'NONE',  ( 1.000000000000000000, 0.0000000000000000000, 0.0000000000000000000 ) ) ;
#264 = CARTESIAN_POINT ( 'NONE',  ( 1.000000000000000000, 0.0000000000000000000, 12.50000000000000000 ) ) ;
#265 = CARTESIAN_POINT ( 'NONE',  ( -1.000000000000000000, 0.0000000000000000000, 0.0000000000000000000 ) ) ;
#266 = ORIENTED_EDGE ( 'NONE', *, *, #161, .T. ) ;
#267 = DIRECTION ( 'NONE',  ( 1.000000000000000000, -0.0000000000000000000, -0.0000000000000000000 ) ) ;
#268 = DIRECTION ( 'NONE',  ( 0.0000000000000000000, 0.0000000000000000000, 1.000000000000000000 ) ) ;
#269 = EDGE_CURVE ( 'NONE', #127, #160, #65, .T. ) ;
#270 = MECHANICAL_CONTEXT ( 'NONE', #207, 'mechanical' ) ;
#271 = DIRECTION ( 'NONE',  ( 0.0000000000000000000, 0.0000000000000000000, 1.000000000000000000 ) ) ;
#272 = CC_DESIGN_DATE_AND_TIME_ASSIGNMENT ( #261, #253, ( #40 ) ) ;
#273 = EDGE_CURVE ( 'NONE', #223, #64, #115, .T. ) ;
#274 = VECTOR ( 'NONE', #212, 1000.000000000000000 ) ;
#275 = EDGE_LOOP ( 'NONE', ( #57, #81, #120, #142 ) ) ;
ENDSEC;
END-ISO-10303-21;
