ISO-10303-21;
HEADER;
FILE_DESCRIPTION (( 'STEP AP203' ),
    '1' );
FILE_NAME ('Web Model 48200_11920.step',
    '2019-01-07T15:24:40',
    ( '' ),
    ( '' ),
    'SwSTEP 2.0',
    'SolidWorks 2016',
    '' );
FILE_SCHEMA (( 'CONFIG_CONTROL_DESIGN' ));
ENDSEC;

DATA;
#1 = CARTESIAN_POINT ( 'NONE',  ( 6.250000000000006200, -6.249999999999984900, -1.000000000000000000 ) ) ;
#2 = AXIS2_PLACEMENT_3D ( 'NONE', #59, #181, #78 ) ;
#3 = PERSON_AND_ORGANIZATION ( #139, #75 ) ;
#4 = DIRECTION ( 'NONE',  ( 0.0000000000000000000, 0.0000000000000000000, 1.000000000000000000 ) ) ;
#5 =( LENGTH_UNIT ( ) NAMED_UNIT ( * ) SI_UNIT ( .MILLI., .METRE. ) );
#6 = AXIS2_PLACEMENT_3D ( 'NONE', #144, #95, #27 ) ;
#7 = CARTESIAN_POINT ( 'NONE',  ( -6.249999999999994700, 6.250000000000012400, -1.000000000000000000 ) ) ;
#8 = LINE ( 'NONE', #147, #149 ) ;
#9 = ORIENTED_EDGE ( 'NONE', *, *, #37, .T. ) ;
#10 = CARTESIAN_POINT ( 'NONE',  ( 6.250000000000006200, -6.249999999999984900, 1.000000000000000000 ) ) ;
#11 =( GEOMETRIC_REPRESENTATION_CONTEXT ( 3 ) GLOBAL_UNCERTAINTY_ASSIGNED_CONTEXT ( ( #12 ) ) GLOBAL_UNIT_ASSIGNED_CONTEXT ( ( #5, #107, #128 ) ) REPRESENTATION_CONTEXT ( 'NONE', 'WORKASPACE' ) );
#12 = UNCERTAINTY_MEASURE_WITH_UNIT (LENGTH_MEASURE( 1.000000000000000100E-005 ), #5, 'distance_accuracy_value', 'NONE');
#13 = DIRECTION ( 'NONE',  ( 0.0000000000000000000, -0.0000000000000000000, 1.000000000000000000 ) ) ;
#14 = ADVANCED_FACE ( 'NONE', ( #211 ), #160, .T. ) ;
#15 = APPROVAL_PERSON_ORGANIZATION ( #232, #220, #86 ) ;
#16 = ADVANCED_FACE ( 'NONE', ( #130 ), #104, .F. ) ;
#17 = LINE ( 'NONE', #7, #137 ) ;
#18 = CC_DESIGN_DATE_AND_TIME_ASSIGNMENT ( #223, #136, ( #194 ) ) ;
#19 = AXIS2_PLACEMENT_3D ( 'NONE', #22, #36, #54 ) ;
#20 = PERSON_AND_ORGANIZATION ( #139, #75 ) ;
#21 = LINE ( 'NONE', #10, #123 ) ;
#22 = CARTESIAN_POINT ( 'NONE',  ( -6.249999999999994700, 6.250000000000012400, 1.000000000000000000 ) ) ;
#23 = APPROVAL_DATE_TIME ( #28, #167 ) ;
#24 = ORIENTED_EDGE ( 'NONE', *, *, #133, .T. ) ;
#25 = DIRECTION ( 'NONE',  ( -1.000000000000000000, -0.0000000000000000000, -0.0000000000000000000 ) ) ;
#26 = ORIENTED_EDGE ( 'NONE', *, *, #52, .F. ) ;
#27 = DIRECTION ( 'NONE',  ( -1.000000000000000000, 0.0000000000000000000, -0.0000000000000000000 ) ) ;
#28 = DATE_AND_TIME ( #209, #51 ) ;
#29 = APPROVAL_ROLE ( '' ) ;
#30 = APPLICATION_PROTOCOL_DEFINITION ( 'international standard', 'config_control_design', 1994, #172 ) ;
#31 = ORIENTED_EDGE ( 'NONE', *, *, #188, .F. ) ;
#32 = EDGE_LOOP ( 'NONE', ( #113, #90, #80, #116 ) ) ;
#33 = ORIENTED_EDGE ( 'NONE', *, *, #168, .F. ) ;
#34 = VERTEX_POINT ( 'NONE', #93 ) ;
#35 = ORIENTED_EDGE ( 'NONE', *, *, #52, .T. ) ;
#36 = DIRECTION ( 'NONE',  ( 0.0000000000000000000, -1.000000000000000000, 0.0000000000000000000 ) ) ;
#37 = EDGE_CURVE ( 'NONE', #100, #176, #126, .T. ) ;
#38 = APPROVAL_PERSON_ORGANIZATION ( #3, #167, #29 ) ;
#39 = CARTESIAN_POINT ( 'NONE',  ( 6.250000000000006200, -6.249999999999984900, 1.000000000000000000 ) ) ;
#40 = LOCAL_TIME ( 10, 24, 40.00000000000000000, #89 ) ;
#41 = CARTESIAN_POINT ( 'NONE',  ( -6.249999999999994700, 6.250000000000012400, 1.000000000000000000 ) ) ;
#42 = DIRECTION ( 'NONE',  ( -1.000000000000000000, -0.0000000000000000000, -0.0000000000000000000 ) ) ;
#43 = ADVANCED_FACE ( 'NONE', ( #170 ), #121, .F. ) ;
#44 = DIRECTION ( 'NONE',  ( 1.000000000000000000, 0.0000000000000000000, 0.0000000000000000000 ) ) ;
#45 = FACE_OUTER_BOUND ( 'NONE', #91, .T. ) ;
#46 = DIRECTION ( 'NONE',  ( 0.0000000000000000000, 0.0000000000000000000, -1.000000000000000000 ) ) ;
#47 = COORDINATED_UNIVERSAL_TIME_OFFSET ( 5, 0, .BEHIND. ) ;
#48 = CC_DESIGN_DATE_AND_TIME_ASSIGNMENT ( #99, #134, ( #84 ) ) ;
#49 = LINE ( 'NONE', #131, #145 ) ;
#50 = VECTOR ( 'NONE', #127, 1000.000000000000000 ) ;
#51 = LOCAL_TIME ( 10, 24, 40.00000000000000000, #193 ) ;
#52 = EDGE_CURVE ( 'NONE', #67, #100, #21, .T. ) ;
#53 = ORIENTED_EDGE ( 'NONE', *, *, #188, .T. ) ;
#54 = DIRECTION ( 'NONE',  ( 0.0000000000000000000, -0.0000000000000000000, -1.000000000000000000 ) ) ;
#55 = CC_DESIGN_APPROVAL ( #167, ( #194 ) ) ;
#56 = PERSON_AND_ORGANIZATION ( #139, #75 ) ;
#57 = CARTESIAN_POINT ( 'NONE',  ( 0.0000000000000000000, 0.0000000000000000000, -1.000000000000000000 ) ) ;
#58 = CARTESIAN_POINT ( 'NONE',  ( -6.249999999999994700, -6.249999999999984900, -1.000000000000000000 ) ) ;
#59 = CARTESIAN_POINT ( 'NONE',  ( 0.0000000000000000000, 0.0000000000000000000, 0.0000000000000000000 ) ) ;
#60 = VECTOR ( 'NONE', #236, 1000.000000000000000 ) ;
#61 = APPLICATION_CONTEXT ( 'configuration controlled 3d designs of mechanical parts and assemblies' ) ;
#62 = PERSON_AND_ORGANIZATION ( #139, #75 ) ;
#63 = CARTESIAN_POINT ( 'NONE',  ( 6.250000000000006200, 6.250000000000012400, -1.000000000000000000 ) ) ;
#64 = DIRECTION ( 'NONE',  ( -0.0000000000000000000, -1.000000000000000000, -0.0000000000000000000 ) ) ;
#65 = COORDINATED_UNIVERSAL_TIME_OFFSET ( 5, 0, .BEHIND. ) ;
#66 = APPROVAL_STATUS ( 'not_yet_approved' ) ;
#67 = VERTEX_POINT ( 'NONE', #72 ) ;
#68 = APPROVAL_STATUS ( 'not_yet_approved' ) ;
#69 = PRODUCT ( 'Web Model 48200_11920', 'Web Model 48200_11920', '', ( #110 ) ) ;
#70 = ORIENTED_EDGE ( 'NONE', *, *, #168, .T. ) ;
#71 = VERTEX_POINT ( 'NONE', #102 ) ;
#72 = CARTESIAN_POINT ( 'NONE',  ( 6.250000000000006200, -6.249999999999984900, 1.000000000000000000 ) ) ;
#73 = VERTEX_POINT ( 'NONE', #129 ) ;
#74 = EDGE_CURVE ( 'NONE', #173, #215, #120, .T. ) ;
#75 = ORGANIZATION ( 'UNSPECIFIED', 'UNSPECIFIED', '' ) ;
#76 = CARTESIAN_POINT ( 'NONE',  ( -6.249999999999994700, -6.249999999999984900, -1.000000000000000000 ) ) ;
#77 = ORIENTED_EDGE ( 'NONE', *, *, #74, .F. ) ;
#78 = DIRECTION ( 'NONE',  ( 1.000000000000000000, 0.0000000000000000000, 0.0000000000000000000 ) ) ;
#79 = DIRECTION ( 'NONE',  ( -0.0000000000000000000, -0.0000000000000000000, -1.000000000000000000 ) ) ;
#80 = ORIENTED_EDGE ( 'NONE', *, *, #208, .F. ) ;
#81 = ORIENTED_EDGE ( 'NONE', *, *, #199, .F. ) ;
#82 = AXIS2_PLACEMENT_3D ( 'NONE', #184, #218, #13 ) ;
#83 = DIRECTION ( 'NONE',  ( -0.0000000000000000000, -1.000000000000000000, -0.0000000000000000000 ) ) ;
#84 = SECURITY_CLASSIFICATION ( '', '', #171 ) ;
#85 = PERSON_AND_ORGANIZATION_ROLE ( 'creator' ) ;
#86 = APPROVAL_ROLE ( '' ) ;
#87 = LINE ( 'NONE', #58, #50 ) ;
#88 = ORIENTED_EDGE ( 'NONE', *, *, #74, .T. ) ;
#89 = COORDINATED_UNIVERSAL_TIME_OFFSET ( 5, 0, .BEHIND. ) ;
#90 = ORIENTED_EDGE ( 'NONE', *, *, #133, .F. ) ;
#91 = EDGE_LOOP ( 'NONE', ( #177, #77, #117, #24 ) ) ;
#92 = DATE_AND_TIME ( #197, #237 ) ;
#93 = CARTESIAN_POINT ( 'NONE',  ( -6.249999999999994700, 6.250000000000012400, 1.000000000000000000 ) ) ;
#94 = APPROVAL_PERSON_ORGANIZATION ( #189, #154, #114 ) ;
#95 = DIRECTION ( 'NONE',  ( 0.0000000000000000000, 0.0000000000000000000, -1.000000000000000000 ) ) ;
#96 = FACE_OUTER_BOUND ( 'NONE', #152, .T. ) ;
#97 = CARTESIAN_POINT ( 'NONE',  ( -6.249999999999994700, -6.249999999999984900, -1.000000000000000000 ) ) ;
#98 = LOCAL_TIME ( 10, 24, 40.00000000000000000, #47 ) ;
#99 = DATE_AND_TIME ( #213, #138 ) ;
#100 = VERTEX_POINT ( 'NONE', #178 ) ;
#101 = DATE_AND_TIME ( #153, #40 ) ;
#102 = CARTESIAN_POINT ( 'NONE',  ( 6.250000000000006200, 6.250000000000012400, 1.000000000000000000 ) ) ;
#103 = EDGE_CURVE ( 'NONE', #34, #173, #221, .T. ) ;
#104 = PLANE ( 'NONE',  #108 ) ;
#105 = APPROVAL_DATE_TIME ( #92, #154 ) ;
#106 = ORIENTED_EDGE ( 'NONE', *, *, #103, .T. ) ;
#107 =( NAMED_UNIT ( * ) PLANE_ANGLE_UNIT ( ) SI_UNIT ( $, .RADIAN. ) );
#108 = AXIS2_PLACEMENT_3D ( 'NONE', #39, #203, #4 ) ;
#109 = PRODUCT_DEFINITION_FORMATION_WITH_SPECIFIED_SOURCE ( 'ANY', '', #69, .NOT_KNOWN. ) ;
#110 = MECHANICAL_CONTEXT ( 'NONE', #61, 'mechanical' ) ;
#111 = CARTESIAN_POINT ( 'NONE',  ( -6.249999999999994700, -6.249999999999984900, 1.000000000000000000 ) ) ;
#112 = PLANE ( 'NONE',  #82 ) ;
#113 = ORIENTED_EDGE ( 'NONE', *, *, #118, .T. ) ;
#114 = APPROVAL_ROLE ( '' ) ;
#115 = VECTOR ( 'NONE', #42, 1000.000000000000000 ) ;
#116 = ORIENTED_EDGE ( 'NONE', *, *, #216, .T. ) ;
#117 = ORIENTED_EDGE ( 'NONE', *, *, #103, .F. ) ;
#118 = EDGE_CURVE ( 'NONE', #176, #73, #17, .T. ) ;
#119 = EDGE_CURVE ( 'NONE', #73, #215, #141, .T. ) ;
#120 = LINE ( 'NONE', #161, #231 ) ;
#121 = PLANE ( 'NONE',  #19 ) ;
#122 = ORIENTED_EDGE ( 'NONE', *, *, #208, .T. ) ;
#123 = VECTOR ( 'NONE', #79, 1000.000000000000000 ) ;
#124 = DIRECTION ( 'NONE',  ( 0.0000000000000000000, 0.0000000000000000000, -1.000000000000000000 ) ) ;
#125 = SHAPE_DEFINITION_REPRESENTATION ( #233, #198 ) ;
#126 = LINE ( 'NONE', #1, #60 ) ;
#127 = DIRECTION ( 'NONE',  ( 1.000000000000000000, 0.0000000000000000000, 0.0000000000000000000 ) ) ;
#128 =( NAMED_UNIT ( * ) SI_UNIT ( $, .STERADIAN. ) SOLID_ANGLE_UNIT ( ) );
#129 = CARTESIAN_POINT ( 'NONE',  ( -6.249999999999994700, 6.250000000000012400, -1.000000000000000000 ) ) ;
#130 = FACE_OUTER_BOUND ( 'NONE', #157, .T. ) ;
#131 = CARTESIAN_POINT ( 'NONE',  ( -6.249999999999994700, -6.249999999999984900, 1.000000000000000000 ) ) ;
#132 = CALENDAR_DATE ( 2019, 7, 1 ) ;
#133 = EDGE_CURVE ( 'NONE', #34, #73, #205, .T. ) ;
#134 = DATE_TIME_ROLE ( 'classification_date' ) ;
#135 = FACE_OUTER_BOUND ( 'NONE', #229, .T. ) ;
#136 = DATE_TIME_ROLE ( 'creation_date' ) ;
#137 = VECTOR ( 'NONE', #25, 1000.000000000000000 ) ;
#138 = LOCAL_TIME ( 10, 24, 40.00000000000000000, #151 ) ;
#139 = PERSON ( 'UNSPECIFIED', 'UNSPECIFIED', 'UNSPECIFIED', ('UNSPECIFIED'), ('UNSPECIFIED'), ('UNSPECIFIED') ) ;
#140 = CC_DESIGN_PERSON_AND_ORGANIZATION_ASSIGNMENT ( #185, #85, ( #109 ) ) ;
#141 = LINE ( 'NONE', #97, #212 ) ;
#142 = DIRECTION ( 'NONE',  ( -0.0000000000000000000, -0.0000000000000000000, -1.000000000000000000 ) ) ;
#143 = DESIGN_CONTEXT ( 'detailed design', #172, 'design' ) ;
#144 = CARTESIAN_POINT ( 'NONE',  ( 0.0000000000000000000, 0.0000000000000000000, 1.000000000000000000 ) ) ;
#145 = VECTOR ( 'NONE', #187, 1000.000000000000000 ) ;
#146 = ADVANCED_FACE ( 'NONE', ( #45 ), #207, .F. ) ;
#147 = CARTESIAN_POINT ( 'NONE',  ( 6.250000000000006200, 6.250000000000012400, 1.000000000000000000 ) ) ;
#148 = CARTESIAN_POINT ( 'NONE',  ( -6.249999999999994700, -6.249999999999984900, 1.000000000000000000 ) ) ;
#149 = VECTOR ( 'NONE', #163, 1000.000000000000000 ) ;
#150 = ADVANCED_FACE ( 'NONE', ( #96 ), #164, .F. ) ;
#151 = COORDINATED_UNIVERSAL_TIME_OFFSET ( 5, 0, .BEHIND. ) ;
#152 = EDGE_LOOP ( 'NONE', ( #70, #122, #106, #53 ) ) ;
#153 = CALENDAR_DATE ( 2019, 7, 1 ) ;
#154 = APPROVAL ( #68, 'UNSPECIFIED' ) ;
#155 = CC_DESIGN_PERSON_AND_ORGANIZATION_ASSIGNMENT ( #56, #169, ( #69 ) ) ;
#156 = AXIS2_PLACEMENT_3D ( 'NONE', #57, #124, #200 ) ;
#157 = EDGE_LOOP ( 'NONE', ( #9, #210, #33, #35 ) ) ;
#158 = CC_DESIGN_SECURITY_CLASSIFICATION ( #84, ( #109 ) ) ;
#159 = VECTOR ( 'NONE', #64, 1000.000000000000000 ) ;
#160 = PLANE ( 'NONE',  #156 ) ;
#161 = CARTESIAN_POINT ( 'NONE',  ( -6.249999999999994700, -6.249999999999984900, 1.000000000000000000 ) ) ;
#162 = ORIENTED_EDGE ( 'NONE', *, *, #199, .T. ) ;
#163 = DIRECTION ( 'NONE',  ( -0.0000000000000000000, -0.0000000000000000000, -1.000000000000000000 ) ) ;
#164 = PLANE ( 'NONE',  #6 ) ;
#165 = CC_DESIGN_APPROVAL ( #220, ( #84 ) ) ;
#166 = ORIENTED_EDGE ( 'NONE', *, *, #118, .F. ) ;
#167 = APPROVAL ( #191, 'UNSPECIFIED' ) ;
#168 = EDGE_CURVE ( 'NONE', #67, #71, #179, .T. ) ;
#169 = PERSON_AND_ORGANIZATION_ROLE ( 'design_owner' ) ;
#170 = FACE_OUTER_BOUND ( 'NONE', #32, .T. ) ;
#171 = SECURITY_CLASSIFICATION_LEVEL ( 'unclassified' ) ;
#172 = APPLICATION_CONTEXT ( 'configuration controlled 3d designs of mechanical parts and assemblies' ) ;
#173 = VERTEX_POINT ( 'NONE', #148 ) ;
#174 = PRODUCT_RELATED_PRODUCT_CATEGORY ( 'detail', '', ( #69 ) ) ;
#175 = EDGE_LOOP ( 'NONE', ( #226, #81, #192, #166 ) ) ;
#176 = VERTEX_POINT ( 'NONE', #63 ) ;
#177 = ORIENTED_EDGE ( 'NONE', *, *, #119, .T. ) ;
#178 = CARTESIAN_POINT ( 'NONE',  ( 6.250000000000006200, -6.249999999999984900, -1.000000000000000000 ) ) ;
#179 = LINE ( 'NONE', #206, #196 ) ;
#180 = CARTESIAN_POINT ( 'NONE',  ( -6.249999999999994700, -6.249999999999984900, 1.000000000000000000 ) ) ;
#181 = DIRECTION ( 'NONE',  ( 0.0000000000000000000, 0.0000000000000000000, 1.000000000000000000 ) ) ;
#182 = DIRECTION ( 'NONE',  ( 0.0000000000000000000, 1.000000000000000000, 0.0000000000000000000 ) ) ;
#183 = MANIFOLD_SOLID_BREP ( 'Boss-Extrude1', #214 ) ;
#184 = CARTESIAN_POINT ( 'NONE',  ( -6.249999999999994700, -6.249999999999984900, 1.000000000000000000 ) ) ;
#185 = PERSON_AND_ORGANIZATION ( #139, #75 ) ;
#186 = ADVANCED_FACE ( 'NONE', ( #135 ), #112, .F. ) ;
#187 = DIRECTION ( 'NONE',  ( 1.000000000000000000, 0.0000000000000000000, 0.0000000000000000000 ) ) ;
#188 = EDGE_CURVE ( 'NONE', #173, #67, #49, .T. ) ;
#189 = PERSON_AND_ORGANIZATION ( #139, #75 ) ;
#190 = AXIS2_PLACEMENT_3D ( 'NONE', #111, #44, #46 ) ;
#191 = APPROVAL_STATUS ( 'not_yet_approved' ) ;
#192 = ORIENTED_EDGE ( 'NONE', *, *, #119, .F. ) ;
#193 = COORDINATED_UNIVERSAL_TIME_OFFSET ( 5, 0, .BEHIND. ) ;
#194 = PRODUCT_DEFINITION ( 'UNKNOWN', '', #109, #143 ) ;
#195 = LINE ( 'NONE', #41, #115 ) ;
#196 = VECTOR ( 'NONE', #182, 1000.000000000000000 ) ;
#197 = CALENDAR_DATE ( 2019, 7, 1 ) ;
#198 = ADVANCED_BREP_SHAPE_REPRESENTATION ( 'Web Model 48200_11920', ( #183, #2 ), #11 ) ;
#199 = EDGE_CURVE ( 'NONE', #215, #100, #87, .T. ) ;
#200 = DIRECTION ( 'NONE',  ( -1.000000000000000000, 0.0000000000000000000, -0.0000000000000000000 ) ) ;
#201 = CC_DESIGN_PERSON_AND_ORGANIZATION_ASSIGNMENT ( #20, #228, ( #109 ) ) ;
#202 = PERSON_AND_ORGANIZATION ( #139, #75 ) ;
#203 = DIRECTION ( 'NONE',  ( -1.000000000000000000, 0.0000000000000000000, 0.0000000000000000000 ) ) ;
#204 = DIRECTION ( 'NONE',  ( -0.0000000000000000000, -0.0000000000000000000, -1.000000000000000000 ) ) ;
#205 = LINE ( 'NONE', #222, #217 ) ;
#206 = CARTESIAN_POINT ( 'NONE',  ( 6.250000000000006200, -6.249999999999984900, 1.000000000000000000 ) ) ;
#207 = PLANE ( 'NONE',  #190 ) ;
#208 = EDGE_CURVE ( 'NONE', #71, #34, #195, .T. ) ;
#209 = CALENDAR_DATE ( 2019, 7, 1 ) ;
#210 = ORIENTED_EDGE ( 'NONE', *, *, #216, .F. ) ;
#211 = FACE_OUTER_BOUND ( 'NONE', #175, .T. ) ;
#212 = VECTOR ( 'NONE', #83, 1000.000000000000000 ) ;
#213 = CALENDAR_DATE ( 2019, 7, 1 ) ;
#214 = CLOSED_SHELL ( 'NONE', ( #16, #43, #146, #186, #150, #14 ) ) ;
#215 = VERTEX_POINT ( 'NONE', #76 ) ;
#216 = EDGE_CURVE ( 'NONE', #71, #176, #8, .T. ) ;
#217 = VECTOR ( 'NONE', #204, 1000.000000000000000 ) ;
#218 = DIRECTION ( 'NONE',  ( 0.0000000000000000000, 1.000000000000000000, 0.0000000000000000000 ) ) ;
#219 = APPLICATION_PROTOCOL_DEFINITION ( 'international standard', 'config_control_design', 1994, #61 ) ;
#220 = APPROVAL ( #66, 'UNSPECIFIED' ) ;
#221 = LINE ( 'NONE', #180, #159 ) ;
#222 = CARTESIAN_POINT ( 'NONE',  ( -6.249999999999994700, 6.250000000000012400, 1.000000000000000000 ) ) ;
#223 = DATE_AND_TIME ( #132, #98 ) ;
#224 = PERSON_AND_ORGANIZATION_ROLE ( 'creator' ) ;
#225 = CC_DESIGN_PERSON_AND_ORGANIZATION_ASSIGNMENT ( #202, #227, ( #84 ) ) ;
#226 = ORIENTED_EDGE ( 'NONE', *, *, #37, .F. ) ;
#227 = PERSON_AND_ORGANIZATION_ROLE ( 'classification_officer' ) ;
#228 = PERSON_AND_ORGANIZATION_ROLE ( 'design_supplier' ) ;
#229 = EDGE_LOOP ( 'NONE', ( #162, #26, #31, #88 ) ) ;
#230 = APPROVAL_DATE_TIME ( #101, #220 ) ;
#231 = VECTOR ( 'NONE', #142, 1000.000000000000000 ) ;
#232 = PERSON_AND_ORGANIZATION ( #139, #75 ) ;
#233 = PRODUCT_DEFINITION_SHAPE ( 'NONE', 'NONE',  #194 ) ;
#234 = CC_DESIGN_PERSON_AND_ORGANIZATION_ASSIGNMENT ( #62, #224, ( #194 ) ) ;
#235 = CC_DESIGN_APPROVAL ( #154, ( #109 ) ) ;
#236 = DIRECTION ( 'NONE',  ( 0.0000000000000000000, 1.000000000000000000, 0.0000000000000000000 ) ) ;
#237 = LOCAL_TIME ( 10, 24, 40.00000000000000000, #65 ) ;
ENDSEC;
END-ISO-10303-21;
