ISO-10303-21;
HEADER;
FILE_DESCRIPTION (( 'STEP AP203' ),
    '1' );
FILE_NAME ('Web Model 68403.STEP',
    '2017-01-31T19:57:21',
    ( '' ),
    ( '' ),
    'SwSTEP 2.0',
    'SolidWorks 2016',
    '' );
FILE_SCHEMA (( 'CONFIG_CONTROL_DESIGN' ));
ENDSEC;

DATA;
#1 = DIRECTION ( 'NONE',  ( 0.0000000000000000000, 0.0000000000000000000, 1.000000000000000000 ) ) ;
#2 = APPROVAL_STATUS ( 'not_yet_approved' ) ;
#3 = APPROVAL_STATUS ( 'not_yet_approved' ) ;
#4 = LINE ( 'NONE', #161, #5 ) ;
#5 = VECTOR ( 'NONE', #136, 1000.000000000000000 ) ;
#6 = CALENDAR_DATE ( 2017, 31, 1 ) ;
#7 = SHAPE_DEFINITION_REPRESENTATION ( #144, #30 ) ;
#8 = ORIENTED_EDGE ( 'NONE', *, *, #165, .F. ) ;
#9 = PERSON_AND_ORGANIZATION ( #17, #114 ) ;
#10 = CARTESIAN_POINT ( 'NONE',  ( 0.0000000000000000000, 0.0000000000000000000, 0.0000000000000000000 ) ) ;
#11 = CC_DESIGN_PERSON_AND_ORGANIZATION_ASSIGNMENT ( #34, #59, ( #100 ) ) ;
#12 = PERSON_AND_ORGANIZATION ( #17, #114 ) ;
#13 = ORIENTED_EDGE ( 'NONE', *, *, #127, .T. ) ;
#14 = APPROVAL_PERSON_ORGANIZATION ( #9, #18, #76 ) ;
#15 = PERSON_AND_ORGANIZATION_ROLE ( 'creator' ) ;
#16 = CARTESIAN_POINT ( 'NONE',  ( 0.0000000000000000000, 0.0000000000000000000, 0.0000000000000000000 ) ) ;
#17 = PERSON ( 'UNSPECIFIED', 'UNSPECIFIED', 'UNSPECIFIED', ('UNSPECIFIED'), ('UNSPECIFIED'), ('UNSPECIFIED') ) ;
#18 = APPROVAL ( #2, 'UNSPECIFIED' ) ;
#19 = CYLINDRICAL_SURFACE ( 'NONE', #148, 12.50000000000000000 ) ;
#20 = SECURITY_CLASSIFICATION ( '', '', #121 ) ;
#21 = EDGE_LOOP ( 'NONE', ( #143, #8 ) ) ;
#22 = DIRECTION ( 'NONE',  ( 1.000000000000000000, 0.0000000000000000000, -0.0000000000000000000 ) ) ;
#23 = CARTESIAN_POINT ( 'NONE',  ( 0.0000000000000000000, 0.0000000000000000000, 3.000000000000000000 ) ) ;
#24 = COORDINATED_UNIVERSAL_TIME_OFFSET ( 5, 0, .BEHIND. ) ;
#25 = FACE_OUTER_BOUND ( 'NONE', #21, .T. ) ;
#26 = VERTEX_POINT ( 'NONE', #151 ) ;
#27 =( NAMED_UNIT ( * ) PLANE_ANGLE_UNIT ( ) SI_UNIT ( $, .RADIAN. ) );
#28 = PERSON_AND_ORGANIZATION_ROLE ( 'creator' ) ;
#29 = CALENDAR_DATE ( 2017, 31, 1 ) ;
#30 = ADVANCED_BREP_SHAPE_REPRESENTATION ( 'Web Model 68403', ( #91, #164 ), #77 ) ;
#31 = ORIENTED_EDGE ( 'NONE', *, *, #155, .F. ) ;
#32 = CARTESIAN_POINT ( 'NONE',  ( 0.0000000000000000000, 0.0000000000000000000, 3.000000000000000000 ) ) ;
#33 = PRODUCT_DEFINITION ( 'UNKNOWN', '', #100, #46 ) ;
#34 = PERSON_AND_ORGANIZATION ( #17, #114 ) ;
#35 = DIRECTION ( 'NONE',  ( 1.000000000000000000, 0.0000000000000000000, 0.0000000000000000000 ) ) ;
#36 = CC_DESIGN_PERSON_AND_ORGANIZATION_ASSIGNMENT ( #137, #160, ( #20 ) ) ;
#37 = CALENDAR_DATE ( 2017, 31, 1 ) ;
#38 = EDGE_LOOP ( 'NONE', ( #122, #79, #171, #157 ) ) ;
#39 = DIRECTION ( 'NONE',  ( 1.000000000000000000, 0.0000000000000000000, 0.0000000000000000000 ) ) ;
#40 = PERSON_AND_ORGANIZATION_ROLE ( 'design_owner' ) ;
#41 = COORDINATED_UNIVERSAL_TIME_OFFSET ( 5, 0, .BEHIND. ) ;
#42 = FACE_OUTER_BOUND ( 'NONE', #85, .T. ) ;
#43 = APPLICATION_CONTEXT ( 'configuration controlled 3d designs of mechanical parts and assemblies' ) ;
#44 = VERTEX_POINT ( 'NONE', #69 ) ;
#45 = CARTESIAN_POINT ( 'NONE',  ( -12.50000000000000000, 0.0000000000000000000, 0.0000000000000000000 ) ) ;
#46 = DESIGN_CONTEXT ( 'detailed design', #118, 'design' ) ;
#47 = APPROVAL ( #3, 'UNSPECIFIED' ) ;
#48 = DATE_TIME_ROLE ( 'creation_date' ) ;
#49 = DIRECTION ( 'NONE',  ( -0.0000000000000000000, -0.0000000000000000000, -1.000000000000000000 ) ) ;
#50 =( NAMED_UNIT ( * ) SI_UNIT ( $, .STERADIAN. ) SOLID_ANGLE_UNIT ( ) );
#51 = APPROVAL_ROLE ( '' ) ;
#52 = CALENDAR_DATE ( 2017, 31, 1 ) ;
#53 = CC_DESIGN_DATE_AND_TIME_ASSIGNMENT ( #90, #48, ( #33 ) ) ;
#54 = CIRCLE ( 'NONE', #94, 12.50000000000000000 ) ;
#55 = UNCERTAINTY_MEASURE_WITH_UNIT (LENGTH_MEASURE( 1.000000000000000100E-005 ), #139, 'distance_accuracy_value', 'NONE');
#56 = DIRECTION ( 'NONE',  ( 1.000000000000000000, 0.0000000000000000000, 0.0000000000000000000 ) ) ;
#57 = CARTESIAN_POINT ( 'NONE',  ( 0.0000000000000000000, 0.0000000000000000000, 0.0000000000000000000 ) ) ;
#58 = CC_DESIGN_DATE_AND_TIME_ASSIGNMENT ( #63, #75, ( #20 ) ) ;
#59 = PERSON_AND_ORGANIZATION_ROLE ( 'design_supplier' ) ;
#60 = DATE_AND_TIME ( #6, #108 ) ;
#61 = FACE_OUTER_BOUND ( 'NONE', #38, .T. ) ;
#62 = DIRECTION ( 'NONE',  ( -0.0000000000000000000, -0.0000000000000000000, -1.000000000000000000 ) ) ;
#63 = DATE_AND_TIME ( #37, #98 ) ;
#64 = COORDINATED_UNIVERSAL_TIME_OFFSET ( 5, 0, .BEHIND. ) ;
#65 = LOCAL_TIME ( 14, 57, 21.00000000000000000, #64 ) ;
#66 = CARTESIAN_POINT ( 'NONE',  ( 0.0000000000000000000, 0.0000000000000000000, 3.000000000000000000 ) ) ;
#67 = AXIS2_PLACEMENT_3D ( 'NONE', #57, #156, #87 ) ;
#68 = PLANE ( 'NONE',  #105 ) ;
#69 = CARTESIAN_POINT ( 'NONE',  ( 12.50000000000000000, 1.530808498934191500E-015, 0.0000000000000000000 ) ) ;
#70 = LINE ( 'NONE', #72, #81 ) ;
#71 = CARTESIAN_POINT ( 'NONE',  ( 0.0000000000000000000, 0.0000000000000000000, 3.000000000000000000 ) ) ;
#72 = CARTESIAN_POINT ( 'NONE',  ( -12.50000000000000000, 0.0000000000000000000, 3.000000000000000000 ) ) ;
#73 = CALENDAR_DATE ( 2017, 31, 1 ) ;
#74 = APPLICATION_PROTOCOL_DEFINITION ( 'international standard', 'config_control_design', 1994, #118 ) ;
#75 = DATE_TIME_ROLE ( 'classification_date' ) ;
#76 = APPROVAL_ROLE ( '' ) ;
#77 =( GEOMETRIC_REPRESENTATION_CONTEXT ( 3 ) GLOBAL_UNCERTAINTY_ASSIGNED_CONTEXT ( ( #55 ) ) GLOBAL_UNIT_ASSIGNED_CONTEXT ( ( #139, #27, #50 ) ) REPRESENTATION_CONTEXT ( 'NONE', 'WORKASPACE' ) );
#78 = APPROVAL_PERSON_ORGANIZATION ( #162, #126, #101 ) ;
#79 = ORIENTED_EDGE ( 'NONE', *, *, #155, .T. ) ;
#80 = AXIS2_PLACEMENT_3D ( 'NONE', #84, #106, #35 ) ;
#81 = VECTOR ( 'NONE', #62, 1000.000000000000000 ) ;
#82 = FACE_OUTER_BOUND ( 'NONE', #163, .T. ) ;
#83 = PLANE ( 'NONE',  #172 ) ;
#84 = CARTESIAN_POINT ( 'NONE',  ( 0.0000000000000000000, 0.0000000000000000000, 3.000000000000000000 ) ) ;
#85 = EDGE_LOOP ( 'NONE', ( #13, #168 ) ) ;
#86 = DIRECTION ( 'NONE',  ( 0.0000000000000000000, 0.0000000000000000000, 1.000000000000000000 ) ) ;
#87 = DIRECTION ( 'NONE',  ( 1.000000000000000000, 0.0000000000000000000, 0.0000000000000000000 ) ) ;
#88 = DIRECTION ( 'NONE',  ( 0.0000000000000000000, 0.0000000000000000000, 1.000000000000000000 ) ) ;
#89 = APPROVAL_STATUS ( 'not_yet_approved' ) ;
#90 = DATE_AND_TIME ( #73, #110 ) ;
#91 = MANIFOLD_SOLID_BREP ( 'Extrude1', #104 ) ;
#92 = ORIENTED_EDGE ( 'NONE', *, *, #150, .T. ) ;
#93 = LOCAL_TIME ( 14, 57, 21.00000000000000000, #154 ) ;
#94 = AXIS2_PLACEMENT_3D ( 'NONE', #16, #88, #39 ) ;
#95 = CIRCLE ( 'NONE', #128, 12.50000000000000000 ) ;
#96 = PERSON_AND_ORGANIZATION ( #17, #114 ) ;
#97 = ORIENTED_EDGE ( 'NONE', *, *, #142, .T. ) ;
#98 = LOCAL_TIME ( 14, 57, 21.00000000000000000, #102 ) ;
#99 = MECHANICAL_CONTEXT ( 'NONE', #43, 'mechanical' ) ;
#100 = PRODUCT_DEFINITION_FORMATION_WITH_SPECIFIED_SOURCE ( 'ANY', '', #146, .NOT_KNOWN. ) ;
#101 = APPROVAL_ROLE ( '' ) ;
#102 = COORDINATED_UNIVERSAL_TIME_OFFSET ( 5, 0, .BEHIND. ) ;
#103 = APPLICATION_PROTOCOL_DEFINITION ( 'international standard', 'config_control_design', 1994, #43 ) ;
#104 = CLOSED_SHELL ( 'NONE', ( #109, #141, #135, #119 ) ) ;
#105 = AXIS2_PLACEMENT_3D ( 'NONE', #23, #116, #153 ) ;
#106 = DIRECTION ( 'NONE',  ( 0.0000000000000000000, 0.0000000000000000000, 1.000000000000000000 ) ) ;
#107 = VERTEX_POINT ( 'NONE', #117 ) ;
#108 = LOCAL_TIME ( 14, 57, 21.00000000000000000, #41 ) ;
#109 = ADVANCED_FACE ( 'NONE', ( #61 ), #175, .T. ) ;
#110 = LOCAL_TIME ( 14, 57, 21.00000000000000000, #24 ) ;
#111 = CIRCLE ( 'NONE', #80, 12.50000000000000000 ) ;
#112 = ORIENTED_EDGE ( 'NONE', *, *, #127, .F. ) ;
#113 = EDGE_CURVE ( 'NONE', #107, #26, #95, .T. ) ;
#114 = ORGANIZATION ( 'UNSPECIFIED', 'UNSPECIFIED', '' ) ;
#115 = VERTEX_POINT ( 'NONE', #45 ) ;
#116 = DIRECTION ( 'NONE',  ( 0.0000000000000000000, 0.0000000000000000000, 1.000000000000000000 ) ) ;
#117 = CARTESIAN_POINT ( 'NONE',  ( 12.50000000000000000, 1.530808498934191500E-015, 3.000000000000000000 ) ) ;
#118 = APPLICATION_CONTEXT ( 'configuration controlled 3d designs of mechanical parts and assemblies' ) ;
#119 = ADVANCED_FACE ( 'NONE', ( #25 ), #83, .F. ) ;
#120 = CARTESIAN_POINT ( 'NONE',  ( 0.0000000000000000000, 0.0000000000000000000, 0.0000000000000000000 ) ) ;
#121 = SECURITY_CLASSIFICATION_LEVEL ( 'unclassified' ) ;
#122 = ORIENTED_EDGE ( 'NONE', *, *, #113, .F. ) ;
#123 = CC_DESIGN_APPROVAL ( #47, ( #20 ) ) ;
#124 = CIRCLE ( 'NONE', #67, 12.50000000000000000 ) ;
#125 = APPROVAL_DATE_TIME ( #167, #126 ) ;
#126 = APPROVAL ( #89, 'UNSPECIFIED' ) ;
#127 = EDGE_CURVE ( 'NONE', #26, #107, #111, .T. ) ;
#128 = AXIS2_PLACEMENT_3D ( 'NONE', #71, #86, #56 ) ;
#129 = APPROVAL_DATE_TIME ( #145, #18 ) ;
#130 = PRODUCT_RELATED_PRODUCT_CATEGORY ( 'detail', '', ( #146 ) ) ;
#131 = DIRECTION ( 'NONE',  ( -0.0000000000000000000, -0.0000000000000000000, -1.000000000000000000 ) ) ;
#132 = CC_DESIGN_APPROVAL ( #18, ( #33 ) ) ;
#133 = PERSON_AND_ORGANIZATION ( #17, #114 ) ;
#134 = CC_DESIGN_PERSON_AND_ORGANIZATION_ASSIGNMENT ( #133, #40, ( #146 ) ) ;
#135 = ADVANCED_FACE ( 'NONE', ( #42 ), #68, .T. ) ;
#136 = DIRECTION ( 'NONE',  ( -0.0000000000000000000, -0.0000000000000000000, -1.000000000000000000 ) ) ;
#137 = PERSON_AND_ORGANIZATION ( #17, #114 ) ;
#138 = DIRECTION ( 'NONE',  ( -1.000000000000000000, 0.0000000000000000000, 0.0000000000000000000 ) ) ;
#139 =( LENGTH_UNIT ( ) NAMED_UNIT ( * ) SI_UNIT ( .MILLI., .METRE. ) );
#140 = CC_DESIGN_PERSON_AND_ORGANIZATION_ASSIGNMENT ( #147, #15, ( #33 ) ) ;
#141 = ADVANCED_FACE ( 'NONE', ( #82 ), #19, .T. ) ;
#142 = EDGE_CURVE ( 'NONE', #115, #44, #124, .T. ) ;
#143 = ORIENTED_EDGE ( 'NONE', *, *, #142, .F. ) ;
#144 = PRODUCT_DEFINITION_SHAPE ( 'NONE', 'NONE',  #33 ) ;
#145 = DATE_AND_TIME ( #29, #93 ) ;
#146 = PRODUCT ( 'Web Model 68403', 'Web Model 68403', '', ( #99 ) ) ;
#147 = PERSON_AND_ORGANIZATION ( #17, #114 ) ;
#148 = AXIS2_PLACEMENT_3D ( 'NONE', #32, #49, #138 ) ;
#149 = APPROVAL_PERSON_ORGANIZATION ( #96, #47, #51 ) ;
#150 = EDGE_CURVE ( 'NONE', #26, #115, #70, .T. ) ;
#151 = CARTESIAN_POINT ( 'NONE',  ( -12.50000000000000000, 0.0000000000000000000, 3.000000000000000000 ) ) ;
#152 = CC_DESIGN_APPROVAL ( #126, ( #100 ) ) ;
#153 = DIRECTION ( 'NONE',  ( 1.000000000000000000, 0.0000000000000000000, -0.0000000000000000000 ) ) ;
#154 = COORDINATED_UNIVERSAL_TIME_OFFSET ( 5, 0, .BEHIND. ) ;
#155 = EDGE_CURVE ( 'NONE', #107, #44, #4, .T. ) ;
#156 = DIRECTION ( 'NONE',  ( 0.0000000000000000000, 0.0000000000000000000, 1.000000000000000000 ) ) ;
#157 = ORIENTED_EDGE ( 'NONE', *, *, #150, .F. ) ;
#158 = DIRECTION ( 'NONE',  ( 1.000000000000000000, 0.0000000000000000000, 0.0000000000000000000 ) ) ;
#159 = DIRECTION ( 'NONE',  ( 0.0000000000000000000, 0.0000000000000000000, 1.000000000000000000 ) ) ;
#160 = PERSON_AND_ORGANIZATION_ROLE ( 'classification_officer' ) ;
#161 = CARTESIAN_POINT ( 'NONE',  ( 12.50000000000000000, 1.530808498934191500E-015, 3.000000000000000000 ) ) ;
#162 = PERSON_AND_ORGANIZATION ( #17, #114 ) ;
#163 = EDGE_LOOP ( 'NONE', ( #31, #112, #92, #97 ) ) ;
#164 = AXIS2_PLACEMENT_3D ( 'NONE', #120, #159, #158 ) ;
#165 = EDGE_CURVE ( 'NONE', #44, #115, #54, .T. ) ;
#166 = CC_DESIGN_SECURITY_CLASSIFICATION ( #20, ( #100 ) ) ;
#167 = DATE_AND_TIME ( #52, #65 ) ;
#168 = ORIENTED_EDGE ( 'NONE', *, *, #113, .T. ) ;
#169 = CC_DESIGN_PERSON_AND_ORGANIZATION_ASSIGNMENT ( #12, #28, ( #100 ) ) ;
#170 = AXIS2_PLACEMENT_3D ( 'NONE', #66, #131, #173 ) ;
#171 = ORIENTED_EDGE ( 'NONE', *, *, #165, .T. ) ;
#172 = AXIS2_PLACEMENT_3D ( 'NONE', #10, #1, #22 ) ;
#173 = DIRECTION ( 'NONE',  ( -1.000000000000000000, 0.0000000000000000000, 0.0000000000000000000 ) ) ;
#174 = APPROVAL_DATE_TIME ( #60, #47 ) ;
#175 = CYLINDRICAL_SURFACE ( 'NONE', #170, 12.50000000000000000 ) ;
ENDSEC;
END-ISO-10303-21;
