ISO-10303-21;
HEADER;
FILE_DESCRIPTION (( 'STEP AP203' ),
    '1' );
FILE_NAME ('TTN162614-E0W.STEP',
    '2019-10-24T14:00:43',
    ( '' ),
    ( '' ),
    'SwSTEP 2.0',
    'SolidWorks 2018',
    '' );
FILE_SCHEMA (( 'CONFIG_CONTROL_DESIGN' ));
ENDSEC;

DATA;
#1 = ADVANCED_FACE ( 'NONE', ( #144 ), #156, .T. ) ;
#2 = CARTESIAN_POINT ( 'NONE',  ( 0.9926542565331109014, 0.3235047619626260640, 1.494619014541581636 ) ) ;
#3 = CC_DESIGN_PERSON_AND_ORGANIZATION_ASSIGNMENT ( #274, #231, ( #160 ) ) ;
#4 = ORIENTED_EDGE ( 'NONE', *, *, #214, .F. ) ;
#5 = CARTESIAN_POINT ( 'NONE',  ( 0.9926542565331111234, 0.3235047619626258975, 2.534732109618104801 ) ) ;
#6 = LINE ( 'NONE', #99, #168 ) ;
#7 = DIRECTION ( 'NONE',  ( -0.0000000000000000000, -5.923799415417704456E-17, 1.000000000000000000 ) ) ;
#8 = CC_DESIGN_APPROVAL ( #294, ( #254 ) ) ;
#9 = DIRECTION ( 'NONE',  ( 0.0000000000000000000, 1.000000000000000000, 6.118522418089754368E-17 ) ) ;
#10 = ADVANCED_FACE ( 'NONE', ( #263 ), #48, .T. ) ;
#11 = ORIENTED_EDGE ( 'NONE', *, *, #197, .F. ) ;
#12 = APPROVAL_STATUS ( 'not_yet_approved' ) ;
#13 = PERSON_AND_ORGANIZATION_ROLE ( 'creator' ) ;
#14 = ORIENTED_EDGE ( 'NONE', *, *, #140, .F. ) ;
#15 = DIRECTION ( 'NONE',  ( -1.398519409849086572E-16, -1.000000000000000000, 0.0000000000000000000 ) ) ;
#16 = PLANE ( 'NONE',  #245 ) ;
#17 = CARTESIAN_POINT ( 'NONE',  ( 0.9926542565331109014, 1.823504761962626342, -0.1563809854584184422 ) ) ;
#18 = DIRECTION ( 'NONE',  ( 0.0000000000000000000, 5.923799415417704456E-17, -1.000000000000000000 ) ) ;
#19 = EDGE_CURVE ( 'NONE', #108, #200, #27, .T. ) ;
#20 = APPROVAL_DATE_TIME ( #202, #294 ) ;
#21 = APPLICATION_PROTOCOL_DEFINITION ( 'international standard', 'config_control_design', 1994, #155 ) ;
#22 = DIRECTION ( 'NONE',  ( 0.0000000000000000000, -5.923799415417704456E-17, 1.000000000000000000 ) ) ;
#23 = VECTOR ( 'NONE', #36, 1000.000000000000114 ) ;
#24 = CC_DESIGN_DATE_AND_TIME_ASSIGNMENT ( #76, #285, ( #179 ) ) ;
#25 = DATE_AND_TIME ( #38, #195 ) ;
#26 = EDGE_CURVE ( 'NONE', #200, #125, #272, .T. ) ;
#27 = LINE ( 'NONE', #2, #255 ) ;
#28 = VERTEX_POINT ( 'NONE', #280 ) ;
#29 = CALENDAR_DATE ( 2019, 24, 10 ) ;
#30 = ORIENTED_EDGE ( 'NONE', *, *, #145, .T. ) ;
#31 = APPROVAL_PERSON_ORGANIZATION ( #43, #282, #213 ) ;
#32 = DIRECTION ( 'NONE',  ( 0.0000000000000000000, -1.000000000000000000, 0.0000000000000000000 ) ) ;
#33 = DIRECTION ( 'NONE',  ( -0.0000000000000000000, -5.923799415417704456E-17, 1.000000000000000000 ) ) ;
#34 = ORIENTED_EDGE ( 'NONE', *, *, #185, .F. ) ;
#35 = EDGE_LOOP ( 'NONE', ( #14, #176, #41, #89 ) ) ;
#36 = DIRECTION ( 'NONE',  ( 8.659560562354913137E-17, -0.7071067811865460184, -0.7071067811865489050 ) ) ;
#37 = LOCAL_TIME ( 10, 0, 43.00000000000000000, #265 ) ;
#38 = CALENDAR_DATE ( 2019, 24, 10 ) ;
#39 = AXIS2_PLACEMENT_3D ( 'NONE', #215, #130, #111 ) ;
#40 = APPROVAL_ROLE ( '' ) ;
#41 = ORIENTED_EDGE ( 'NONE', *, *, #19, .T. ) ;
#42 = CIRCLE ( 'NONE', #137, 1.450000000000000178 ) ;
#43 = PERSON_AND_ORGANIZATION ( #158, #276 ) ;
#44 = DIRECTION ( 'NONE',  ( -1.000000000000000000, 1.224646799147353207E-16, 7.254561992882253793E-33 ) ) ;
#45 = DIRECTION ( 'NONE',  ( 0.0000000000000000000, 1.000000000000000000, 6.118522418089754368E-17 ) ) ;
#46 = VECTOR ( 'NONE', #161, 1000.000000000000114 ) ;
#47 = DIRECTION ( 'NONE',  ( 0.0000000000000000000, -1.000000000000000000, 0.0000000000000000000 ) ) ;
#48 = SPHERICAL_SURFACE ( 'NONE', #71, 3.100999999999999979 ) ;
#49 = EDGE_CURVE ( 'NONE', #53, #210, #93, .T. ) ;
#50 = FACE_OUTER_BOUND ( 'NONE', #260, .T. ) ;
#51 = APPROVAL_DATE_TIME ( #25, #262 ) ;
#52 = CARTESIAN_POINT ( 'NONE',  ( 0.9926542565331109014, 1.823504761962626342, 2.944619014541581148 ) ) ;
#53 = VERTEX_POINT ( 'NONE', #81 ) ;
#54 =( NAMED_UNIT ( * ) SI_UNIT ( $, .STERADIAN. ) SOLID_ANGLE_UNIT ( ) );
#55 = SHAPE_DEFINITION_REPRESENTATION ( #235, #248 ) ;
#56 = EDGE_CURVE ( 'NONE', #84, #228, #209, .T. ) ;
#57 = ORIENTED_EDGE ( 'NONE', *, *, #214, .T. ) ;
#58 = CC_DESIGN_PERSON_AND_ORGANIZATION_ASSIGNMENT ( #198, #124, ( #160 ) ) ;
#59 = ORIENTED_EDGE ( 'NONE', *, *, #113, .T. ) ;
#60 = CONICAL_SURFACE ( 'NONE', #75, 1.500000000000000222, 0.7853981633974461696 ) ;
#61 = CARTESIAN_POINT ( 'NONE',  ( 0.9926542565331109014, 0.3735047619626262194, 1.444619014541581592 ) ) ;
#62 = CARTESIAN_POINT ( 'NONE',  ( 0.9926542565331109014, 1.823504761962626342, -0.1563809854584184422 ) ) ;
#63 = COORDINATED_UNIVERSAL_TIME_OFFSET ( 5, 0, .BEHIND. ) ;
#64 = AXIS2_PLACEMENT_3D ( 'NONE', #170, #44, #15 ) ;
#65 = CARTESIAN_POINT ( 'NONE',  ( 0.9926542565331109014, 1.823504761962626342, 1.494619014541581858 ) ) ;
#66 = FACE_OUTER_BOUND ( 'NONE', #172, .T. ) ;
#67 = CARTESIAN_POINT ( 'NONE',  ( 0.9926542565331111234, 3.323504761962626564, 2.944619014541581148 ) ) ;
#68 = FACE_OUTER_BOUND ( 'NONE', #35, .T. ) ;
#69 = DIRECTION ( 'NONE',  ( 0.0000000000000000000, -1.000000000000000000, 0.0000000000000000000 ) ) ;
#70 = DIRECTION ( 'NONE',  ( -0.0000000000000000000, -5.923799415417704456E-17, 1.000000000000000000 ) ) ;
#71 = AXIS2_PLACEMENT_3D ( 'NONE', #284, #230, #9 ) ;
#72 = PERSON_AND_ORGANIZATION_ROLE ( 'design_owner' ) ;
#73 = CIRCLE ( 'NONE', #226, 1.500000000000000222 ) ;
#74 = CIRCLE ( 'NONE', #96, 1.450000000000000178 ) ;
#75 = AXIS2_PLACEMENT_3D ( 'NONE', #109, #266, #290 ) ;
#76 = DATE_AND_TIME ( #251, #203 ) ;
#77 = DIRECTION ( 'NONE',  ( 1.000000000000000000, 0.0000000000000000000, 0.0000000000000000000 ) ) ;
#78 = ORIENTED_EDGE ( 'NONE', *, *, #26, .F. ) ;
#79 = EDGE_CURVE ( 'NONE', #84, #53, #243, .T. ) ;
#80 = SPHERICAL_SURFACE ( 'NONE', #169, 3.100999999999999979 ) ;
#81 = CARTESIAN_POINT ( 'NONE',  ( 0.9926542565331109014, 3.273504761962626741, 2.584732109618105511 ) ) ;
#82 = ORIENTED_EDGE ( 'NONE', *, *, #180, .T. ) ;
#83 = AXIS2_PLACEMENT_3D ( 'NONE', #65, #187, #249 ) ;
#84 = VERTEX_POINT ( 'NONE', #163 ) ;
#85 = ORIENTED_EDGE ( 'NONE', *, *, #201, .T. ) ;
#86 = CC_DESIGN_PERSON_AND_ORGANIZATION_ASSIGNMENT ( #146, #13, ( #254 ) ) ;
#87 = DIRECTION ( 'NONE',  ( 0.0000000000000000000, 5.923799415417704456E-17, -1.000000000000000000 ) ) ;
#88 = CARTESIAN_POINT ( 'NONE',  ( 0.9926542565331109014, 1.823504761962626342, 1.444619014541581592 ) ) ;
#89 = ORIENTED_EDGE ( 'NONE', *, *, #180, .F. ) ;
#90 = PERSON_AND_ORGANIZATION ( #158, #276 ) ;
#91 = DIRECTION ( 'NONE',  ( 0.0000000000000000000, -1.000000000000000000, 0.0000000000000000000 ) ) ;
#92 = AXIS2_PLACEMENT_3D ( 'NONE', #256, #7, #32 ) ;
#93 = LINE ( 'NONE', #207, #46 ) ;
#94 = ORIENTED_EDGE ( 'NONE', *, *, #49, .T. ) ;
#95 = CALENDAR_DATE ( 2019, 24, 10 ) ;
#96 = AXIS2_PLACEMENT_3D ( 'NONE', #192, #87, #69 ) ;
#97 = ORIENTED_EDGE ( 'NONE', *, *, #140, .T. ) ;
#98 = DIRECTION ( 'NONE',  ( 0.0000000000000000000, -1.000000000000000000, 0.0000000000000000000 ) ) ;
#99 = CARTESIAN_POINT ( 'NONE',  ( 0.9926542565331111234, 3.323504761962626564, 1.494619014541581636 ) ) ;
#100 = EDGE_CURVE ( 'NONE', #53, #199, #157, .T. ) ;
#101 = FACE_OUTER_BOUND ( 'NONE', #150, .T. ) ;
#102 = ADVANCED_FACE ( 'NONE', ( #68 ), #219, .T. ) ;
#103 = SECURITY_CLASSIFICATION_LEVEL ( 'unclassified' ) ;
#104 = ORIENTED_EDGE ( 'NONE', *, *, #79, .T. ) ;
#105 = FACE_OUTER_BOUND ( 'NONE', #221, .T. ) ;
#106 = DIRECTION ( 'NONE',  ( 0.0000000000000000000, -1.000000000000000000, 0.0000000000000000000 ) ) ;
#107 = ORIENTED_EDGE ( 'NONE', *, *, #197, .T. ) ;
#108 = VERTEX_POINT ( 'NONE', #61 ) ;
#109 = CARTESIAN_POINT ( 'NONE',  ( 0.9926542565331109014, 1.823504761962626119, 2.534732109618104801 ) ) ;
#110 = PRODUCT_RELATED_PRODUCT_CATEGORY ( 'detail', '', ( #225 ) ) ;
#111 = DIRECTION ( 'NONE',  ( 0.0000000000000000000, -1.000000000000000000, 0.0000000000000000000 ) ) ;
#112 = DIRECTION ( 'NONE',  ( 0.0000000000000000000, -1.000000000000000000, -5.923799415417704456E-17 ) ) ;
#113 = EDGE_CURVE ( 'NONE', #200, #228, #121, .T. ) ;
#114 = ORIENTED_EDGE ( 'NONE', *, *, #19, .F. ) ;
#115 = ORIENTED_EDGE ( 'NONE', *, *, #271, .T. ) ;
#116 = AXIS2_PLACEMENT_3D ( 'NONE', #236, #239, #174 ) ;
#117 = EDGE_LOOP ( 'NONE', ( #218, #107, #279, #296 ) ) ;
#118 = ADVANCED_FACE ( 'NONE', ( #101 ), #223, .T. ) ;
#119 = ORIENTED_EDGE ( 'NONE', *, *, #201, .F. ) ;
#120 = AXIS2_PLACEMENT_3D ( 'NONE', #123, #33, #186 ) ;
#121 = LINE ( 'NONE', #122, #182 ) ;
#122 = CARTESIAN_POINT ( 'NONE',  ( 0.9926542565331109014, 0.3235047619626258975, 2.944619014541581148 ) ) ;
#123 = CARTESIAN_POINT ( 'NONE',  ( 0.9926542565331109014, 1.823504761962626119, 2.584732109618105511 ) ) ;
#124 = PERSON_AND_ORGANIZATION_ROLE ( 'creator' ) ;
#125 = VERTEX_POINT ( 'NONE', #208 ) ;
#126 = DIRECTION ( 'NONE',  ( 0.0000000000000000000, -1.000000000000000000, 0.0000000000000000000 ) ) ;
#127 = CONICAL_SURFACE ( 'NONE', #166, 1.500000000000000222, 0.7853981633974461696 ) ;
#128 = LOCAL_TIME ( 10, 0, 43.00000000000000000, #206 ) ;
#129 = CARTESIAN_POINT ( 'NONE',  ( 0.9926542565331109014, 1.823504761962626119, 2.534732109618104801 ) ) ;
#130 = DIRECTION ( 'NONE',  ( -0.0000000000000000000, -5.923799415417704456E-17, 1.000000000000000000 ) ) ;
#131 = DIRECTION ( 'NONE',  ( -0.0000000000000000000, -5.923799415417704456E-17, 1.000000000000000000 ) ) ;
#132 = DIRECTION ( 'NONE',  ( -1.000000000000000000, 0.0000000000000000000, 0.0000000000000000000 ) ) ;
#133 = PERSON_AND_ORGANIZATION ( #158, #276 ) ;
#134 = APPLICATION_PROTOCOL_DEFINITION ( 'international standard', 'config_control_design', 1994, #267 ) ;
#135 = ORIENTED_EDGE ( 'NONE', *, *, #79, .F. ) ;
#136 = ORIENTED_EDGE ( 'NONE', *, *, #175, .F. ) ;
#137 = AXIS2_PLACEMENT_3D ( 'NONE', #88, #18, #47 ) ;
#138 = CC_DESIGN_APPROVAL ( #282, ( #179 ) ) ;
#139 = APPROVAL_PERSON_ORGANIZATION ( #211, #294, #148 ) ;
#140 = EDGE_CURVE ( 'NONE', #28, #125, #6, .T. ) ;
#141 = DIRECTION ( 'NONE',  ( 0.0000000000000000000, -1.000000000000000000, 0.0000000000000000000 ) ) ;
#142 = AXIS2_PLACEMENT_3D ( 'NONE', #295, #70, #126 ) ;
#143 = ADVANCED_FACE ( 'NONE', ( #105 ), #80, .T. ) ;
#144 = FACE_OUTER_BOUND ( 'NONE', #117, .T. ) ;
#145 = EDGE_CURVE ( 'NONE', #108, #28, #74, .T. ) ;
#146 = PERSON_AND_ORGANIZATION ( #158, #276 ) ;
#147 = DATE_AND_TIME ( #270, #128 ) ;
#148 = APPROVAL_ROLE ( '' ) ;
#149 = CARTESIAN_POINT ( 'NONE',  ( 0.9926542565331109014, 1.823504761962626119, 2.534732109618104801 ) ) ;
#150 = EDGE_LOOP ( 'NONE', ( #136, #97, #78, #114 ) ) ;
#151 = CARTESIAN_POINT ( 'NONE',  ( 0.9926542565331111234, 3.323504761962626564, 2.534732109618104801 ) ) ;
#152 = COORDINATED_UNIVERSAL_TIME_OFFSET ( 5, 0, .BEHIND. ) ;
#153 =( NAMED_UNIT ( * ) PLANE_ANGLE_UNIT ( ) SI_UNIT ( $, .RADIAN. ) );
#154 = AXIS2_PLACEMENT_3D ( 'NONE', #205, #253, #98 ) ;
#155 = APPLICATION_CONTEXT ( 'configuration controlled 3d designs of mechanical parts and assemblies' ) ;
#156 = CYLINDRICAL_SURFACE ( 'NONE', #92, 1.500000000000000222 ) ;
#157 = CIRCLE ( 'NONE', #277, 3.101000000000000423 ) ;
#158 = PERSON ( 'UNSPECIFIED', 'UNSPECIFIED', 'UNSPECIFIED', ('UNSPECIFIED'), ('UNSPECIFIED'), ('UNSPECIFIED') ) ;
#159 = DIRECTION ( 'NONE',  ( -0.0000000000000000000, -5.923799415417704456E-17, 1.000000000000000000 ) ) ;
#160 = PRODUCT_DEFINITION_FORMATION_WITH_SPECIFIED_SOURCE ( 'ANY', '', #225, .NOT_KNOWN. ) ;
#161 = DIRECTION ( 'NONE',  ( 0.0000000000000000000, 0.7071067811865460184, -0.7071067811865489050 ) ) ;
#162 = CIRCLE ( 'NONE', #39, 1.500000000000000222 ) ;
#163 = CARTESIAN_POINT ( 'NONE',  ( 0.9926542565331111234, 0.3735047619626257753, 2.584732109618105511 ) ) ;
#164 = ORIENTED_EDGE ( 'NONE', *, *, #49, .F. ) ;
#165 = PERSON_AND_ORGANIZATION_ROLE ( 'classification_officer' ) ;
#166 = AXIS2_PLACEMENT_3D ( 'NONE', #242, #293, #238 ) ;
#167 = UNCERTAINTY_MEASURE_WITH_UNIT (LENGTH_MEASURE( 1.000000000000000082E-05 ), #297, 'distance_accuracy_value', 'NONE');
#168 = VECTOR ( 'NONE', #264, 1000.000000000000114 ) ;
#169 = AXIS2_PLACEMENT_3D ( 'NONE', #17, #132, #45 ) ;
#170 = CARTESIAN_POINT ( 'NONE',  ( 0.9926542565331109014, 1.823504761962626342, -0.1563809854584184422 ) ) ;
#171 = DIRECTION ( 'NONE',  ( -0.0000000000000000000, -5.923799415417704456E-17, 1.000000000000000000 ) ) ;
#172 = EDGE_LOOP ( 'NONE', ( #30, #275 ) ) ;
#173 = CC_DESIGN_PERSON_AND_ORGANIZATION_ASSIGNMENT ( #133, #165, ( #179 ) ) ;
#174 = DIRECTION ( 'NONE',  ( 0.0000000000000000000, -1.000000000000000000, 0.0000000000000000000 ) ) ;
#175 = EDGE_CURVE ( 'NONE', #28, #108, #42, .T. ) ;
#176 = ORIENTED_EDGE ( 'NONE', *, *, #145, .F. ) ;
#177 = MECHANICAL_CONTEXT ( 'NONE', #155, 'mechanical' ) ;
#178 = FACE_OUTER_BOUND ( 'NONE', #220, .T. ) ;
#179 = SECURITY_CLASSIFICATION ( '', '', #103 ) ;
#180 = EDGE_CURVE ( 'NONE', #125, #200, #162, .T. ) ;
#181 = EDGE_LOOP ( 'NONE', ( #291, #119, #94, #292 ) ) ;
#182 = VECTOR ( 'NONE', #159, 1000.000000000000000 ) ;
#183 = ADVANCED_FACE ( 'NONE', ( #283 ), #127, .T. ) ;
#184 = DIRECTION ( 'NONE',  ( 0.0000000000000000000, -0.7071067811865474617, 0.7071067811865474617 ) ) ;
#185 = EDGE_CURVE ( 'NONE', #210, #228, #288, .T. ) ;
#186 = DIRECTION ( 'NONE',  ( 0.0000000000000000000, -1.000000000000000000, 0.0000000000000000000 ) ) ;
#187 = DIRECTION ( 'NONE',  ( -0.0000000000000000000, -5.923799415417704456E-17, 1.000000000000000000 ) ) ;
#188 = DIRECTION ( 'NONE',  ( 0.0000000000000000000, 0.0000000000000000000, -1.000000000000000000 ) ) ;
#189 = AXIS2_PLACEMENT_3D ( 'NONE', #129, #261, #106 ) ;
#190 = PERSON_AND_ORGANIZATION ( #158, #276 ) ;
#191 = ORIENTED_EDGE ( 'NONE', *, *, #100, .F. ) ;
#192 = CARTESIAN_POINT ( 'NONE',  ( 0.9926542565331109014, 1.823504761962626342, 1.444619014541581592 ) ) ;
#193 = DATE_AND_TIME ( #29, #37 ) ;
#194 = CARTESIAN_POINT ( 'NONE',  ( 0.9926542565331109014, 0.3235047619626260640, 1.494619014541581858 ) ) ;
#195 = LOCAL_TIME ( 10, 0, 43.00000000000000000, #273 ) ;
#196 = DIRECTION ( 'NONE',  ( 1.000000000000000000, 0.0000000000000000000, 0.0000000000000000000 ) ) ;
#197 = EDGE_CURVE ( 'NONE', #125, #210, #298, .T. ) ;
#198 = PERSON_AND_ORGANIZATION ( #158, #276 ) ;
#199 = VERTEX_POINT ( 'NONE', #52 ) ;
#200 = VERTEX_POINT ( 'NONE', #194 ) ;
#201 = EDGE_CURVE ( 'NONE', #53, #84, #300, .T. ) ;
#202 = DATE_AND_TIME ( #95, #257 ) ;
#203 = LOCAL_TIME ( 10, 0, 43.00000000000000000, #63 ) ;
#204 = ADVANCED_FACE ( 'NONE', ( #178 ), #224, .T. ) ;
#205 = CARTESIAN_POINT ( 'NONE',  ( 0.9926542565331109014, 1.823504761962626342, 1.494619014541581636 ) ) ;
#206 = COORDINATED_UNIVERSAL_TIME_OFFSET ( 5, 0, .BEHIND. ) ;
#207 = CARTESIAN_POINT ( 'NONE',  ( 0.9926542565331109014, 3.323504761962626564, 2.534732109618104801 ) ) ;
#208 = CARTESIAN_POINT ( 'NONE',  ( 0.9926542565331111234, 3.323504761962627008, 1.494619014541581858 ) ) ;
#209 = LINE ( 'NONE', #5, #23 ) ;
#210 = VERTEX_POINT ( 'NONE', #151 ) ;
#211 = PERSON_AND_ORGANIZATION ( #158, #276 ) ;
#212 = APPROVAL_DATE_TIME ( #147, #282 ) ;
#213 = APPROVAL_ROLE ( '' ) ;
#214 = EDGE_CURVE ( 'NONE', #84, #199, #229, .T. ) ;
#215 = CARTESIAN_POINT ( 'NONE',  ( 0.9926542565331109014, 1.823504761962626342, 1.494619014541581858 ) ) ;
#216 = AXIS2_PLACEMENT_3D ( 'NONE', #252, #278, #141 ) ;
#217 = DIRECTION ( 'NONE',  ( 0.0000000000000000000, 0.0000000000000000000, 1.000000000000000000 ) ) ;
#218 = ORIENTED_EDGE ( 'NONE', *, *, #26, .T. ) ;
#219 = CONICAL_SURFACE ( 'NONE', #154, 1.500000000000000222, 0.7853981633974482790 ) ;
#220 = EDGE_LOOP ( 'NONE', ( #11, #82, #59, #34 ) ) ;
#221 = EDGE_LOOP ( 'NONE', ( #85, #57, #191 ) ) ;
#222 = AXIS2_PLACEMENT_3D ( 'NONE', #244, #217, #196 ) ;
#223 = CONICAL_SURFACE ( 'NONE', #216, 1.500000000000000222, 0.7853981633974482790 ) ;
#224 = CYLINDRICAL_SURFACE ( 'NONE', #142, 1.500000000000000222 ) ;
#225 = PRODUCT ( 'TTN162614-E0W', 'TTN162614-E0W', '', ( #177 ) ) ;
#226 = AXIS2_PLACEMENT_3D ( 'NONE', #149, #171, #91 ) ;
#227 = ADVANCED_FACE ( 'NONE', ( #50 ), #60, .T. ) ;
#228 = VERTEX_POINT ( 'NONE', #289 ) ;
#229 = CIRCLE ( 'NONE', #64, 3.100999999999999979 ) ;
#230 = DIRECTION ( 'NONE',  ( -1.000000000000000000, 0.0000000000000000000, 0.0000000000000000000 ) ) ;
#231 = PERSON_AND_ORGANIZATION_ROLE ( 'design_supplier' ) ;
#232 = VECTOR ( 'NONE', #131, 1000.000000000000000 ) ;
#233 = CARTESIAN_POINT ( 'NONE',  ( 0.9926542565331109014, 1.823504761962626342, 1.444619014541581592 ) ) ;
#234 = MANIFOLD_SOLID_BREP ( 'TTN162288-1-solid1', #241 ) ;
#235 = PRODUCT_DEFINITION_SHAPE ( 'NONE', 'NONE',  #254 ) ;
#236 = CARTESIAN_POINT ( 'NONE',  ( 0.9926542565331109014, 1.823504761962626119, 2.584732109618105511 ) ) ;
#237 = CC_DESIGN_PERSON_AND_ORGANIZATION_ASSIGNMENT ( #190, #72, ( #225 ) ) ;
#238 = DIRECTION ( 'NONE',  ( 0.0000000000000000000, 1.000000000000000000, 0.0000000000000000000 ) ) ;
#239 = DIRECTION ( 'NONE',  ( -0.0000000000000000000, -5.923799415417704456E-17, 1.000000000000000000 ) ) ;
#240 = CC_DESIGN_DATE_AND_TIME_ASSIGNMENT ( #193, #258, ( #254 ) ) ;
#241 = CLOSED_SHELL ( 'NONE', ( #118, #143, #227, #1, #301, #204, #183, #10, #102 ) ) ;
#242 = CARTESIAN_POINT ( 'NONE',  ( 0.9926542565331109014, 1.823504761962626119, 2.534732109618104801 ) ) ;
#243 = CIRCLE ( 'NONE', #120, 1.450000000000000400 ) ;
#244 = CARTESIAN_POINT ( 'NONE',  ( 0.0000000000000000000, 0.0000000000000000000, 0.0000000000000000000 ) ) ;
#245 = AXIS2_PLACEMENT_3D ( 'NONE', #233, #22, #112 ) ;
#246 = CC_DESIGN_SECURITY_CLASSIFICATION ( #179, ( #160 ) ) ;
#247 = APPROVAL_PERSON_ORGANIZATION ( #90, #262, #40 ) ;
#248 = ADVANCED_BREP_SHAPE_REPRESENTATION ( 'TTN162614-E0W', ( #234, #222 ), #299 ) ;
#249 = DIRECTION ( 'NONE',  ( 0.0000000000000000000, -1.000000000000000000, 0.0000000000000000000 ) ) ;
#250 = CC_DESIGN_APPROVAL ( #262, ( #160 ) ) ;
#251 = CALENDAR_DATE ( 2019, 24, 10 ) ;
#252 = CARTESIAN_POINT ( 'NONE',  ( 0.9926542565331109014, 1.823504761962626342, 1.494619014541581636 ) ) ;
#253 = DIRECTION ( 'NONE',  ( -0.0000000000000000000, -5.923799415417704456E-17, 1.000000000000000000 ) ) ;
#254 = PRODUCT_DEFINITION ( 'UNKNOWN', '', #160, #269 ) ;
#255 = VECTOR ( 'NONE', #184, 1000.000000000000114 ) ;
#256 = CARTESIAN_POINT ( 'NONE',  ( 0.9926542565331109014, 1.823504761962626119, 2.944619014541581148 ) ) ;
#257 = LOCAL_TIME ( 10, 0, 43.00000000000000000, #152 ) ;
#258 = DATE_TIME_ROLE ( 'creation_date' ) ;
#259 = APPROVAL_STATUS ( 'not_yet_approved' ) ;
#260 = EDGE_LOOP ( 'NONE', ( #135, #268, #115, #164 ) ) ;
#261 = DIRECTION ( 'NONE',  ( -0.0000000000000000000, -5.923799415417704456E-17, 1.000000000000000000 ) ) ;
#262 = APPROVAL ( #12, 'UNSPECIFIED' ) ;
#263 = FACE_OUTER_BOUND ( 'NONE', #281, .T. ) ;
#264 = DIRECTION ( 'NONE',  ( 8.659560562354932858E-17, 0.7071067811865474617, 0.7071067811865474617 ) ) ;
#265 = COORDINATED_UNIVERSAL_TIME_OFFSET ( 5, 0, .BEHIND. ) ;
#266 = DIRECTION ( 'NONE',  ( 0.0000000000000000000, 5.923799415417704456E-17, -1.000000000000000000 ) ) ;
#267 = APPLICATION_CONTEXT ( 'configuration controlled 3d designs of mechanical parts and assemblies' ) ;
#268 = ORIENTED_EDGE ( 'NONE', *, *, #56, .T. ) ;
#269 = DESIGN_CONTEXT ( 'detailed design', #267, 'design' ) ;
#270 = CALENDAR_DATE ( 2019, 24, 10 ) ;
#271 = EDGE_CURVE ( 'NONE', #228, #210, #73, .T. ) ;
#272 = CIRCLE ( 'NONE', #83, 1.500000000000000222 ) ;
#273 = COORDINATED_UNIVERSAL_TIME_OFFSET ( 5, 0, .BEHIND. ) ;
#274 = PERSON_AND_ORGANIZATION ( #158, #276 ) ;
#275 = ORIENTED_EDGE ( 'NONE', *, *, #175, .T. ) ;
#276 = ORGANIZATION ( 'UNSPECIFIED', 'UNSPECIFIED', '' ) ;
#277 = AXIS2_PLACEMENT_3D ( 'NONE', #62, #77, #188 ) ;
#278 = DIRECTION ( 'NONE',  ( -0.0000000000000000000, -5.923799415417704456E-17, 1.000000000000000000 ) ) ;
#279 = ORIENTED_EDGE ( 'NONE', *, *, #271, .F. ) ;
#280 = CARTESIAN_POINT ( 'NONE',  ( 0.9926542565331111234, 3.273504761962626741, 1.444619014541581592 ) ) ;
#281 = EDGE_LOOP ( 'NONE', ( #4, #104, #286 ) ) ;
#282 = APPROVAL ( #259, 'UNSPECIFIED' ) ;
#283 = FACE_OUTER_BOUND ( 'NONE', #181, .T. ) ;
#284 = CARTESIAN_POINT ( 'NONE',  ( 0.9926542565331109014, 1.823504761962626342, -0.1563809854584184422 ) ) ;
#285 = DATE_TIME_ROLE ( 'classification_date' ) ;
#286 = ORIENTED_EDGE ( 'NONE', *, *, #100, .T. ) ;
#287 = APPROVAL_STATUS ( 'not_yet_approved' ) ;
#288 = CIRCLE ( 'NONE', #189, 1.500000000000000222 ) ;
#289 = CARTESIAN_POINT ( 'NONE',  ( 0.9926542565331109014, 0.3235047619626258975, 2.534732109618104801 ) ) ;
#290 = DIRECTION ( 'NONE',  ( 0.0000000000000000000, 1.000000000000000000, 0.0000000000000000000 ) ) ;
#291 = ORIENTED_EDGE ( 'NONE', *, *, #56, .F. ) ;
#292 = ORIENTED_EDGE ( 'NONE', *, *, #185, .T. ) ;
#293 = DIRECTION ( 'NONE',  ( 0.0000000000000000000, 5.923799415417704456E-17, -1.000000000000000000 ) ) ;
#294 = APPROVAL ( #287, 'UNSPECIFIED' ) ;
#295 = CARTESIAN_POINT ( 'NONE',  ( 0.9926542565331109014, 1.823504761962626119, 2.944619014541581148 ) ) ;
#296 = ORIENTED_EDGE ( 'NONE', *, *, #113, .F. ) ;
#297 =( LENGTH_UNIT ( ) NAMED_UNIT ( * ) SI_UNIT ( .MILLI., .METRE. ) );
#298 = LINE ( 'NONE', #67, #232 ) ;
#299 =( GEOMETRIC_REPRESENTATION_CONTEXT ( 3 ) GLOBAL_UNCERTAINTY_ASSIGNED_CONTEXT ( ( #167 ) ) GLOBAL_UNIT_ASSIGNED_CONTEXT ( ( #297, #153, #54 ) ) REPRESENTATION_CONTEXT ( 'NONE', 'WORKASPACE' ) );
#300 = CIRCLE ( 'NONE', #116, 1.450000000000000400 ) ;
#301 = ADVANCED_FACE ( 'NONE', ( #66 ), #16, .F. ) ;
ENDSEC;
END-ISO-10303-21;
