ISO-10303-21;
HEADER;
FILE_DESCRIPTION (( 'STEP AP203' ),
    '1' );
FILE_NAME ('Web Model 19627_21352.step',
    '2022-03-25T17:23:07',
    ( '' ),
    ( '' ),
    'SwSTEP 2.0',
    'SolidWorks 2021',
    '' );
FILE_SCHEMA (( 'CONFIG_CONTROL_DESIGN' ));
ENDSEC;

DATA;
#1 = COORDINATED_UNIVERSAL_TIME_OFFSET ( 5, 0, .BEHIND. ) ;
#2 = COORDINATED_UNIVERSAL_TIME_OFFSET ( 5, 0, .BEHIND. ) ;
#3 = VERTEX_POINT ( 'NONE', #107 ) ;
#4 = APPROVAL ( #59, 'UNSPECIFIED' ) ;
#5 = DIRECTION ( 'NONE',  ( -0.000000000000000000, -0.000000000000000000, -1.000000000000000000 ) ) ;
#6 = AXIS2_PLACEMENT_3D ( 'NONE', #112, #5, #99 ) ;
#7 = DIRECTION ( 'NONE',  ( 1.000000000000000000, 0.000000000000000000, 0.000000000000000000 ) ) ;
#8 = DIRECTION ( 'NONE',  ( 1.000000000000000000, 0.000000000000000000, 0.000000000000000000 ) ) ;
#9 = DIRECTION ( 'NONE',  ( 0.000000000000000000, 0.000000000000000000, 1.000000000000000000 ) ) ;
#10 =( NAMED_UNIT ( * ) SI_UNIT ( $, .STERADIAN. ) SOLID_ANGLE_UNIT ( ) );
#11 = ADVANCED_FACE ( 'NONE', ( #163 ), #38, .F. ) ;
#12 = AXIS2_PLACEMENT_3D ( 'NONE', #156, #22, #168 ) ;
#13 = APPROVAL_ROLE ( '' ) ;
#14 = PERSON_AND_ORGANIZATION ( #78, #119 ) ;
#15 = VERTEX_POINT ( 'NONE', #137 ) ;
#16 = AXIS2_PLACEMENT_3D ( 'NONE', #91, #34, #154 ) ;
#17 = EDGE_CURVE ( 'NONE', #3, #15, #65, .T. ) ;
#18 = CARTESIAN_POINT ( 'NONE',  ( -25.39999999999999858, 0.000000000000000000, 1.520000000000000018 ) ) ;
#19 = MECHANICAL_CONTEXT ( 'NONE', #54, 'mechanical' ) ;
#20 = CC_DESIGN_PERSON_AND_ORGANIZATION_ASSIGNMENT ( #113, #174, ( #71 ) ) ;
#21 = CC_DESIGN_SECURITY_CLASSIFICATION ( #60, ( #50 ) ) ;
#22 = DIRECTION ( 'NONE',  ( 0.000000000000000000, 0.000000000000000000, 1.000000000000000000 ) ) ;
#23 = DIRECTION ( 'NONE',  ( 0.000000000000000000, 0.000000000000000000, 1.000000000000000000 ) ) ;
#24 = PERSON_AND_ORGANIZATION_ROLE ( 'design_supplier' ) ;
#25 = PERSON_AND_ORGANIZATION ( #78, #119 ) ;
#26 = DATE_AND_TIME ( #88, #142 ) ;
#27 = CC_DESIGN_DATE_AND_TIME_ASSIGNMENT ( #151, #148, ( #66 ) ) ;
#28 = ORIENTED_EDGE ( 'NONE', *, *, #52, .F. ) ;
#29 = CC_DESIGN_APPROVAL ( #46, ( #66 ) ) ;
#30 = LOCAL_TIME ( 13, 23, 7.000000000000000000, #76 ) ;
#31 = AXIS2_PLACEMENT_3D ( 'NONE', #47, #57, #83 ) ;
#32 = CYLINDRICAL_SURFACE ( 'NONE', #6, 25.39999999999999858 ) ;
#33 = CARTESIAN_POINT ( 'NONE',  ( 0.000000000000000000, 0.000000000000000000, 1.520000000000000018 ) ) ;
#34 = DIRECTION ( 'NONE',  ( 0.000000000000000000, 0.000000000000000000, 1.000000000000000000 ) ) ;
#35 = CARTESIAN_POINT ( 'NONE',  ( 0.000000000000000000, 0.000000000000000000, 0.000000000000000000 ) ) ;
#36 = CALENDAR_DATE ( 2022, 25, 3 ) ;
#37 = APPROVAL_STATUS ( 'not_yet_approved' ) ;
#38 = PLANE ( 'NONE',  #16 ) ;
#39 = APPROVAL ( #63, 'UNSPECIFIED' ) ;
#40 = ORIENTED_EDGE ( 'NONE', *, *, #109, .T. ) ;
#41 = EDGE_LOOP ( 'NONE', ( #126, #94, #121, #123 ) ) ;
#42 = APPROVAL_PERSON_ORGANIZATION ( #25, #46, #13 ) ;
#43 = AXIS2_PLACEMENT_3D ( 'NONE', #35, #130, #7 ) ;
#44 = ADVANCED_BREP_SHAPE_REPRESENTATION ( 'Web Model 19627_21352', ( #70, #164 ), #128 ) ;
#45 = AXIS2_PLACEMENT_3D ( 'NONE', #169, #9, #68 ) ;
#46 = APPROVAL ( #37, 'UNSPECIFIED' ) ;
#47 = CARTESIAN_POINT ( 'NONE',  ( 0.000000000000000000, 0.000000000000000000, 1.520000000000000018 ) ) ;
#48 =( NAMED_UNIT ( * ) PLANE_ANGLE_UNIT ( ) SI_UNIT ( $, .RADIAN. ) );
#49 = COORDINATED_UNIVERSAL_TIME_OFFSET ( 5, 0, .BEHIND. ) ;
#50 = PRODUCT_DEFINITION_FORMATION_WITH_SPECIFIED_SOURCE ( 'ANY', '', #71, .NOT_KNOWN. ) ;
#51 = CC_DESIGN_APPROVAL ( #4, ( #60 ) ) ;
#52 = EDGE_CURVE ( 'NONE', #89, #15, #84, .T. ) ;
#53 = PERSON_AND_ORGANIZATION ( #78, #119 ) ;
#54 = APPLICATION_CONTEXT ( 'configuration controlled 3d designs of mechanical parts and assemblies' ) ;
#55 = DIRECTION ( 'NONE',  ( -0.000000000000000000, -0.000000000000000000, -1.000000000000000000 ) ) ;
#56 = FACE_OUTER_BOUND ( 'NONE', #41, .T. ) ;
#57 = DIRECTION ( 'NONE',  ( 0.000000000000000000, 0.000000000000000000, 1.000000000000000000 ) ) ;
#58 = APPLICATION_CONTEXT ( 'configuration controlled 3d designs of mechanical parts and assemblies' ) ;
#59 = APPROVAL_STATUS ( 'not_yet_approved' ) ;
#60 = SECURITY_CLASSIFICATION ( '', '', #147 ) ;
#61 = CIRCLE ( 'NONE', #31, 25.39999999999999858 ) ;
#62 = EDGE_LOOP ( 'NONE', ( #124, #105 ) ) ;
#63 = APPROVAL_STATUS ( 'not_yet_approved' ) ;
#64 = DATE_AND_TIME ( #36, #85 ) ;
#65 = CIRCLE ( 'NONE', #45, 25.39999999999999858 ) ;
#66 = PRODUCT_DEFINITION ( 'UNKNOWN', '', #50, #138 ) ;
#67 = CC_DESIGN_DATE_AND_TIME_ASSIGNMENT ( #135, #158, ( #60 ) ) ;
#68 = DIRECTION ( 'NONE',  ( 1.000000000000000000, 0.000000000000000000, 0.000000000000000000 ) ) ;
#69 = UNCERTAINTY_MEASURE_WITH_UNIT (LENGTH_MEASURE( 1.000000000000000082E-05 ), #116, 'distance_accuracy_value', 'NONE');
#70 = MANIFOLD_SOLID_BREP ( 'Boss-Extrude1', #175 ) ;
#71 = PRODUCT ( 'Web Model 19627_21352', 'Web Model 19627_21352', '', ( #19 ) ) ;
#72 = CARTESIAN_POINT ( 'NONE',  ( 25.39999999999999858, 3.110602869834276865E-15, 1.520000000000000018 ) ) ;
#73 = PERSON_AND_ORGANIZATION ( #78, #119 ) ;
#74 = APPLICATION_PROTOCOL_DEFINITION ( 'international standard', 'config_control_design', 1994, #58 ) ;
#75 = SHAPE_DEFINITION_REPRESENTATION ( #141, #44 ) ;
#76 = COORDINATED_UNIVERSAL_TIME_OFFSET ( 5, 0, .BEHIND. ) ;
#77 = APPROVAL_DATE_TIME ( #26, #39 ) ;
#78 = PERSON ( 'UNSPECIFIED', 'UNSPECIFIED', 'UNSPECIFIED', ('UNSPECIFIED'), ('UNSPECIFIED'), ('UNSPECIFIED') ) ;
#79 = APPROVAL_PERSON_ORGANIZATION ( #14, #4, #101 ) ;
#80 = EDGE_CURVE ( 'NONE', #15, #3, #108, .T. ) ;
#81 = PLANE ( 'NONE',  #12 ) ;
#82 = LOCAL_TIME ( 13, 23, 7.000000000000000000, #2 ) ;
#83 = DIRECTION ( 'NONE',  ( 1.000000000000000000, 0.000000000000000000, 0.000000000000000000 ) ) ;
#84 = LINE ( 'NONE', #172, #144 ) ;
#85 = LOCAL_TIME ( 13, 23, 7.000000000000000000, #1 ) ;
#86 = CALENDAR_DATE ( 2022, 25, 3 ) ;
#87 = LOCAL_TIME ( 13, 23, 7.000000000000000000, #49 ) ;
#88 = CALENDAR_DATE ( 2022, 25, 3 ) ;
#89 = VERTEX_POINT ( 'NONE', #18 ) ;
#90 = CALENDAR_DATE ( 2022, 25, 3 ) ;
#91 = CARTESIAN_POINT ( 'NONE',  ( 0.000000000000000000, 0.000000000000000000, 0.000000000000000000 ) ) ;
#92 = ORIENTED_EDGE ( 'NONE', *, *, #131, .T. ) ;
#93 = EDGE_CURVE ( 'NONE', #161, #3, #117, .T. ) ;
#94 = ORIENTED_EDGE ( 'NONE', *, *, #109, .F. ) ;
#95 = VECTOR ( 'NONE', #55, 1000.000000000000000 ) ;
#96 = APPLICATION_PROTOCOL_DEFINITION ( 'international standard', 'config_control_design', 1994, #54 ) ;
#97 = FACE_OUTER_BOUND ( 'NONE', #133, .T. ) ;
#98 = ADVANCED_FACE ( 'NONE', ( #115 ), #155, .T. ) ;
#99 = DIRECTION ( 'NONE',  ( -1.000000000000000000, 0.000000000000000000, 0.000000000000000000 ) ) ;
#100 = CARTESIAN_POINT ( 'NONE',  ( 0.000000000000000000, 0.000000000000000000, 1.520000000000000018 ) ) ;
#101 = APPROVAL_ROLE ( '' ) ;
#102 = AXIS2_PLACEMENT_3D ( 'NONE', #33, #23, #146 ) ;
#103 = DATE_AND_TIME ( #86, #87 ) ;
#104 = APPROVAL_DATE_TIME ( #64, #4 ) ;
#105 = ORIENTED_EDGE ( 'NONE', *, *, #17, .F. ) ;
#106 = PERSON_AND_ORGANIZATION ( #78, #119 ) ;
#107 = CARTESIAN_POINT ( 'NONE',  ( 25.39999999999999858, 3.110602869834276865E-15, 0.000000000000000000 ) ) ;
#108 = CIRCLE ( 'NONE', #43, 25.39999999999999858 ) ;
#109 = EDGE_CURVE ( 'NONE', #89, #161, #61, .T. ) ;
#110 = ORIENTED_EDGE ( 'NONE', *, *, #17, .T. ) ;
#111 = ORIENTED_EDGE ( 'NONE', *, *, #131, .F. ) ;
#112 = CARTESIAN_POINT ( 'NONE',  ( 0.000000000000000000, 0.000000000000000000, 1.520000000000000018 ) ) ;
#113 = PERSON_AND_ORGANIZATION ( #78, #119 ) ;
#114 = ADVANCED_FACE ( 'NONE', ( #56 ), #32, .T. ) ;
#115 = FACE_OUTER_BOUND ( 'NONE', #166, .T. ) ;
#116 =( LENGTH_UNIT ( ) NAMED_UNIT ( * ) SI_UNIT ( .MILLI., .METRE. ) );
#117 = LINE ( 'NONE', #143, #95 ) ;
#118 = PERSON_AND_ORGANIZATION_ROLE ( 'classification_officer' ) ;
#119 = ORGANIZATION ( 'UNSPECIFIED', 'UNSPECIFIED', '' ) ;
#120 = COORDINATED_UNIVERSAL_TIME_OFFSET ( 5, 0, .BEHIND. ) ;
#121 = ORIENTED_EDGE ( 'NONE', *, *, #52, .T. ) ;
#122 = PERSON_AND_ORGANIZATION ( #78, #119 ) ;
#123 = ORIENTED_EDGE ( 'NONE', *, *, #80, .T. ) ;
#124 = ORIENTED_EDGE ( 'NONE', *, *, #80, .F. ) ;
#125 = CC_DESIGN_PERSON_AND_ORGANIZATION_ASSIGNMENT ( #132, #24, ( #50 ) ) ;
#126 = ORIENTED_EDGE ( 'NONE', *, *, #93, .F. ) ;
#127 = CARTESIAN_POINT ( 'NONE',  ( 0.000000000000000000, 0.000000000000000000, 0.000000000000000000 ) ) ;
#128 =( GEOMETRIC_REPRESENTATION_CONTEXT ( 3 ) GLOBAL_UNCERTAINTY_ASSIGNED_CONTEXT ( ( #69 ) ) GLOBAL_UNIT_ASSIGNED_CONTEXT ( ( #116, #48, #10 ) ) REPRESENTATION_CONTEXT ( 'NONE', 'WORKASPACE' ) );
#129 = APPROVAL_PERSON_ORGANIZATION ( #106, #39, #160 ) ;
#130 = DIRECTION ( 'NONE',  ( 0.000000000000000000, 0.000000000000000000, 1.000000000000000000 ) ) ;
#131 = EDGE_CURVE ( 'NONE', #161, #89, #152, .T. ) ;
#132 = PERSON_AND_ORGANIZATION ( #78, #119 ) ;
#133 = EDGE_LOOP ( 'NONE', ( #40, #92 ) ) ;
#134 = APPROVAL_DATE_TIME ( #103, #46 ) ;
#135 = DATE_AND_TIME ( #162, #82 ) ;
#136 = AXIS2_PLACEMENT_3D ( 'NONE', #100, #145, #157 ) ;
#137 = CARTESIAN_POINT ( 'NONE',  ( -25.39999999999999858, 0.000000000000000000, 0.000000000000000000 ) ) ;
#138 = DESIGN_CONTEXT ( 'detailed design', #58, 'design' ) ;
#139 = ADVANCED_FACE ( 'NONE', ( #97 ), #81, .T. ) ;
#140 = DIRECTION ( 'NONE',  ( 0.000000000000000000, 0.000000000000000000, 1.000000000000000000 ) ) ;
#141 = PRODUCT_DEFINITION_SHAPE ( 'NONE', 'NONE',  #66 ) ;
#142 = LOCAL_TIME ( 13, 23, 7.000000000000000000, #120 ) ;
#143 = CARTESIAN_POINT ( 'NONE',  ( 25.39999999999999858, 3.110602869834276865E-15, 1.520000000000000018 ) ) ;
#144 = VECTOR ( 'NONE', #171, 1000.000000000000000 ) ;
#145 = DIRECTION ( 'NONE',  ( -0.000000000000000000, -0.000000000000000000, -1.000000000000000000 ) ) ;
#146 = DIRECTION ( 'NONE',  ( 1.000000000000000000, 0.000000000000000000, 0.000000000000000000 ) ) ;
#147 = SECURITY_CLASSIFICATION_LEVEL ( 'unclassified' ) ;
#148 = DATE_TIME_ROLE ( 'creation_date' ) ;
#149 = PERSON_AND_ORGANIZATION_ROLE ( 'creator' ) ;
#150 = PERSON_AND_ORGANIZATION_ROLE ( 'creator' ) ;
#151 = DATE_AND_TIME ( #90, #30 ) ;
#152 = CIRCLE ( 'NONE', #102, 25.39999999999999858 ) ;
#153 = CC_DESIGN_PERSON_AND_ORGANIZATION_ASSIGNMENT ( #122, #149, ( #50 ) ) ;
#154 = DIRECTION ( 'NONE',  ( 1.000000000000000000, 0.000000000000000000, -0.000000000000000000 ) ) ;
#155 = CYLINDRICAL_SURFACE ( 'NONE', #136, 25.39999999999999858 ) ;
#156 = CARTESIAN_POINT ( 'NONE',  ( 0.000000000000000000, 0.000000000000000000, 1.520000000000000018 ) ) ;
#157 = DIRECTION ( 'NONE',  ( -1.000000000000000000, 0.000000000000000000, 0.000000000000000000 ) ) ;
#158 = DATE_TIME_ROLE ( 'classification_date' ) ;
#159 = CC_DESIGN_PERSON_AND_ORGANIZATION_ASSIGNMENT ( #53, #150, ( #66 ) ) ;
#160 = APPROVAL_ROLE ( '' ) ;
#161 = VERTEX_POINT ( 'NONE', #72 ) ;
#162 = CALENDAR_DATE ( 2022, 25, 3 ) ;
#163 = FACE_OUTER_BOUND ( 'NONE', #62, .T. ) ;
#164 = AXIS2_PLACEMENT_3D ( 'NONE', #127, #140, #8 ) ;
#165 = ORIENTED_EDGE ( 'NONE', *, *, #93, .T. ) ;
#166 = EDGE_LOOP ( 'NONE', ( #111, #165, #110, #28 ) ) ;
#167 = CC_DESIGN_APPROVAL ( #39, ( #50 ) ) ;
#168 = DIRECTION ( 'NONE',  ( 1.000000000000000000, 0.000000000000000000, -0.000000000000000000 ) ) ;
#169 = CARTESIAN_POINT ( 'NONE',  ( 0.000000000000000000, 0.000000000000000000, 0.000000000000000000 ) ) ;
#170 = PRODUCT_RELATED_PRODUCT_CATEGORY ( 'detail', '', ( #71 ) ) ;
#171 = DIRECTION ( 'NONE',  ( -0.000000000000000000, -0.000000000000000000, -1.000000000000000000 ) ) ;
#172 = CARTESIAN_POINT ( 'NONE',  ( -25.39999999999999858, 0.000000000000000000, 1.520000000000000018 ) ) ;
#173 = CC_DESIGN_PERSON_AND_ORGANIZATION_ASSIGNMENT ( #73, #118, ( #60 ) ) ;
#174 = PERSON_AND_ORGANIZATION_ROLE ( 'design_owner' ) ;
#175 = CLOSED_SHELL ( 'NONE', ( #98, #114, #139, #11 ) ) ;
ENDSEC;
END-ISO-10303-21;
