ISO-10303-21;
HEADER;
FILE_DESCRIPTION (( 'STEP AP203' ),
    '1' );
FILE_NAME ('Web Model 47230_84479.step',
    '2019-01-07T15:31:50',
    ( '' ),
    ( '' ),
    'SwSTEP 2.0',
    'SolidWorks 2016',
    '' );
FILE_SCHEMA (( 'CONFIG_CONTROL_DESIGN' ));
ENDSEC;

DATA;
#1 = EDGE_LOOP ( 'NONE', ( #8, #110 ) ) ;
#2 = DIRECTION ( 'NONE',  ( -0.0000000000000000000, -0.0000000000000000000, -1.000000000000000000 ) ) ;
#3 = APPROVAL_STATUS ( 'not_yet_approved' ) ;
#4 = DIRECTION ( 'NONE',  ( 1.000000000000000000, 0.0000000000000000000, 0.0000000000000000000 ) ) ;
#5 = PERSON_AND_ORGANIZATION_ROLE ( 'design_supplier' ) ;
#6 = PRODUCT_DEFINITION_FORMATION_WITH_SPECIFIED_SOURCE ( 'ANY', '', #48, .NOT_KNOWN. ) ;
#7 = PERSON_AND_ORGANIZATION_ROLE ( 'creator' ) ;
#8 = ORIENTED_EDGE ( 'NONE', *, *, #47, .T. ) ;
#9 = ORIENTED_EDGE ( 'NONE', *, *, #128, .T. ) ;
#10 = PERSON_AND_ORGANIZATION ( #65, #166 ) ;
#11 = EDGE_LOOP ( 'NONE', ( #84, #39 ) ) ;
#12 = CARTESIAN_POINT ( 'NONE',  ( 25.00000000000000000, 3.061616997868383000E-015, -2.000000000000000000 ) ) ;
#13 = FACE_OUTER_BOUND ( 'NONE', #1, .T. ) ;
#14 = PERSON_AND_ORGANIZATION ( #65, #166 ) ;
#15 = CARTESIAN_POINT ( 'NONE',  ( -25.00000000000000000, 0.0000000000000000000, -2.000000000000000000 ) ) ;
#16 = DIRECTION ( 'NONE',  ( -1.000000000000000000, 0.0000000000000000000, 0.0000000000000000000 ) ) ;
#17 = CARTESIAN_POINT ( 'NONE',  ( 0.0000000000000000000, 0.0000000000000000000, -2.000000000000000000 ) ) ;
#18 = APPROVAL_STATUS ( 'not_yet_approved' ) ;
#19 = ORIENTED_EDGE ( 'NONE', *, *, #47, .F. ) ;
#20 = CALENDAR_DATE ( 2019, 7, 1 ) ;
#21 = AXIS2_PLACEMENT_3D ( 'NONE', #70, #2, #113 ) ;
#22 = CYLINDRICAL_SURFACE ( 'NONE', #118, 25.00000000000000000 ) ;
#23 = COORDINATED_UNIVERSAL_TIME_OFFSET ( 5, 0, .BEHIND. ) ;
#24 = LOCAL_TIME ( 10, 31, 50.00000000000000000, #141 ) ;
#25 = APPROVAL ( #3, 'UNSPECIFIED' ) ;
#26 = LOCAL_TIME ( 10, 31, 50.00000000000000000, #80 ) ;
#27 = ORIENTED_EDGE ( 'NONE', *, *, #172, .T. ) ;
#28 = DIRECTION ( 'NONE',  ( 1.000000000000000000, 0.0000000000000000000, 0.0000000000000000000 ) ) ;
#29 = CC_DESIGN_PERSON_AND_ORGANIZATION_ASSIGNMENT ( #96, #36, ( #48 ) ) ;
#30 = LOCAL_TIME ( 10, 31, 50.00000000000000000, #53 ) ;
#31 = ORIENTED_EDGE ( 'NONE', *, *, #58, .F. ) ;
#32 = LOCAL_TIME ( 10, 31, 50.00000000000000000, #23 ) ;
#33 = DIRECTION ( 'NONE',  ( 1.000000000000000000, 0.0000000000000000000, -0.0000000000000000000 ) ) ;
#34 = CARTESIAN_POINT ( 'NONE',  ( 25.00000000000000000, 3.061616997868383000E-015, 2.000000000000000000 ) ) ;
#35 = CIRCLE ( 'NONE', #92, 25.00000000000000000 ) ;
#36 = PERSON_AND_ORGANIZATION_ROLE ( 'design_owner' ) ;
#37 = CARTESIAN_POINT ( 'NONE',  ( 0.0000000000000000000, 0.0000000000000000000, 2.000000000000000000 ) ) ;
#38 = FACE_OUTER_BOUND ( 'NONE', #50, .T. ) ;
#39 = ORIENTED_EDGE ( 'NONE', *, *, #66, .F. ) ;
#40 = DATE_AND_TIME ( #97, #26 ) ;
#41 = VERTEX_POINT ( 'NONE', #12 ) ;
#42 = APPLICATION_PROTOCOL_DEFINITION ( 'international standard', 'config_control_design', 1994, #165 ) ;
#43 = FACE_OUTER_BOUND ( 'NONE', #144, .T. ) ;
#44 = DIRECTION ( 'NONE',  ( 1.000000000000000000, 0.0000000000000000000, 0.0000000000000000000 ) ) ;
#45 = DIRECTION ( 'NONE',  ( 1.000000000000000000, 0.0000000000000000000, -0.0000000000000000000 ) ) ;
#46 = DIRECTION ( 'NONE',  ( -0.0000000000000000000, -0.0000000000000000000, -1.000000000000000000 ) ) ;
#47 = EDGE_CURVE ( 'NONE', #148, #72, #75, .T. ) ;
#48 = PRODUCT ( 'Web Model 47230_84479', 'Web Model 47230_84479', '', ( #146 ) ) ;
#49 = PERSON_AND_ORGANIZATION ( #65, #166 ) ;
#50 = EDGE_LOOP ( 'NONE', ( #31, #155, #152, #120 ) ) ;
#51 = CC_DESIGN_DATE_AND_TIME_ASSIGNMENT ( #40, #142, ( #173 ) ) ;
#52 = CALENDAR_DATE ( 2019, 7, 1 ) ;
#53 = COORDINATED_UNIVERSAL_TIME_OFFSET ( 5, 0, .BEHIND. ) ;
#54 = CIRCLE ( 'NONE', #87, 25.00000000000000000 ) ;
#55 = PERSON_AND_ORGANIZATION ( #65, #166 ) ;
#56 = LOCAL_TIME ( 10, 31, 50.00000000000000000, #68 ) ;
#57 = DATE_TIME_ROLE ( 'classification_date' ) ;
#58 = EDGE_CURVE ( 'NONE', #72, #148, #54, .T. ) ;
#59 = DIRECTION ( 'NONE',  ( 0.0000000000000000000, 0.0000000000000000000, 1.000000000000000000 ) ) ;
#60 = APPLICATION_PROTOCOL_DEFINITION ( 'international standard', 'config_control_design', 1994, #133 ) ;
#61 = DIRECTION ( 'NONE',  ( -0.0000000000000000000, -0.0000000000000000000, -1.000000000000000000 ) ) ;
#62 = SHAPE_DEFINITION_REPRESENTATION ( #91, #122 ) ;
#63 =( GEOMETRIC_REPRESENTATION_CONTEXT ( 3 ) GLOBAL_UNCERTAINTY_ASSIGNED_CONTEXT ( ( #98 ) ) GLOBAL_UNIT_ASSIGNED_CONTEXT ( ( #169, #89, #105 ) ) REPRESENTATION_CONTEXT ( 'NONE', 'WORKASPACE' ) );
#64 = PERSON_AND_ORGANIZATION ( #65, #166 ) ;
#65 = PERSON ( 'UNSPECIFIED', 'UNSPECIFIED', 'UNSPECIFIED', ('UNSPECIFIED'), ('UNSPECIFIED'), ('UNSPECIFIED') ) ;
#66 = EDGE_CURVE ( 'NONE', #41, #164, #112, .T. ) ;
#67 = ADVANCED_FACE ( 'NONE', ( #38 ), #111, .T. ) ;
#68 = COORDINATED_UNIVERSAL_TIME_OFFSET ( 5, 0, .BEHIND. ) ;
#69 = FACE_OUTER_BOUND ( 'NONE', #11, .T. ) ;
#70 = CARTESIAN_POINT ( 'NONE',  ( 0.0000000000000000000, 0.0000000000000000000, 2.000000000000000000 ) ) ;
#71 = DIRECTION ( 'NONE',  ( 0.0000000000000000000, 0.0000000000000000000, 1.000000000000000000 ) ) ;
#72 = VERTEX_POINT ( 'NONE', #34 ) ;
#73 = DATE_AND_TIME ( #167, #56 ) ;
#74 = PLANE ( 'NONE',  #85 ) ;
#75 = CIRCLE ( 'NONE', #79, 25.00000000000000000 ) ;
#76 = DIRECTION ( 'NONE',  ( -0.0000000000000000000, -0.0000000000000000000, -1.000000000000000000 ) ) ;
#77 = EDGE_CURVE ( 'NONE', #72, #41, #157, .T. ) ;
#78 = CARTESIAN_POINT ( 'NONE',  ( 0.0000000000000000000, 0.0000000000000000000, -2.000000000000000000 ) ) ;
#79 = AXIS2_PLACEMENT_3D ( 'NONE', #124, #101, #28 ) ;
#80 = COORDINATED_UNIVERSAL_TIME_OFFSET ( 5, 0, .BEHIND. ) ;
#81 = ORIENTED_EDGE ( 'NONE', *, *, #77, .F. ) ;
#82 = CC_DESIGN_PERSON_AND_ORGANIZATION_ASSIGNMENT ( #102, #143, ( #173 ) ) ;
#83 = PERSON_AND_ORGANIZATION ( #65, #166 ) ;
#84 = ORIENTED_EDGE ( 'NONE', *, *, #172, .F. ) ;
#85 = AXIS2_PLACEMENT_3D ( 'NONE', #17, #159, #33 ) ;
#86 = DIRECTION ( 'NONE',  ( 1.000000000000000000, 0.0000000000000000000, 0.0000000000000000000 ) ) ;
#87 = AXIS2_PLACEMENT_3D ( 'NONE', #127, #71, #86 ) ;
#88 = APPROVAL_STATUS ( 'not_yet_approved' ) ;
#89 =( NAMED_UNIT ( * ) PLANE_ANGLE_UNIT ( ) SI_UNIT ( $, .RADIAN. ) );
#90 = PRODUCT_RELATED_PRODUCT_CATEGORY ( 'detail', '', ( #48 ) ) ;
#91 = PRODUCT_DEFINITION_SHAPE ( 'NONE', 'NONE',  #173 ) ;
#92 = AXIS2_PLACEMENT_3D ( 'NONE', #78, #59, #4 ) ;
#93 = APPROVAL_DATE_TIME ( #150, #25 ) ;
#94 = CC_DESIGN_PERSON_AND_ORGANIZATION_ASSIGNMENT ( #64, #7, ( #6 ) ) ;
#95 = DATE_AND_TIME ( #52, #32 ) ;
#96 = PERSON_AND_ORGANIZATION ( #65, #166 ) ;
#97 = CALENDAR_DATE ( 2019, 7, 1 ) ;
#98 = UNCERTAINTY_MEASURE_WITH_UNIT (LENGTH_MEASURE( 1.000000000000000100E-005 ), #169, 'distance_accuracy_value', 'NONE');
#99 = ADVANCED_FACE ( 'NONE', ( #13 ), #116, .T. ) ;
#100 = VECTOR ( 'NONE', #76, 1000.000000000000000 ) ;
#101 = DIRECTION ( 'NONE',  ( 0.0000000000000000000, 0.0000000000000000000, 1.000000000000000000 ) ) ;
#102 = PERSON_AND_ORGANIZATION ( #65, #166 ) ;
#103 = APPROVAL_PERSON_ORGANIZATION ( #10, #25, #168 ) ;
#104 = APPROVAL_ROLE ( '' ) ;
#105 =( NAMED_UNIT ( * ) SI_UNIT ( $, .STERADIAN. ) SOLID_ANGLE_UNIT ( ) );
#106 = CARTESIAN_POINT ( 'NONE',  ( 0.0000000000000000000, 0.0000000000000000000, 2.000000000000000000 ) ) ;
#107 = CARTESIAN_POINT ( 'NONE',  ( -25.00000000000000000, 0.0000000000000000000, 2.000000000000000000 ) ) ;
#108 = PERSON_AND_ORGANIZATION_ROLE ( 'classification_officer' ) ;
#109 = APPROVAL ( #18, 'UNSPECIFIED' ) ;
#110 = ORIENTED_EDGE ( 'NONE', *, *, #58, .T. ) ;
#111 = CYLINDRICAL_SURFACE ( 'NONE', #21, 25.00000000000000000 ) ;
#112 = CIRCLE ( 'NONE', #121, 25.00000000000000000 ) ;
#113 = DIRECTION ( 'NONE',  ( -1.000000000000000000, 0.0000000000000000000, 0.0000000000000000000 ) ) ;
#114 = CARTESIAN_POINT ( 'NONE',  ( 25.00000000000000000, 3.061616997868383000E-015, 2.000000000000000000 ) ) ;
#115 = CARTESIAN_POINT ( 'NONE',  ( 0.0000000000000000000, 0.0000000000000000000, -2.000000000000000000 ) ) ;
#116 = PLANE ( 'NONE',  #136 ) ;
#117 = AXIS2_PLACEMENT_3D ( 'NONE', #135, #129, #44 ) ;
#118 = AXIS2_PLACEMENT_3D ( 'NONE', #37, #46, #16 ) ;
#119 = CC_DESIGN_SECURITY_CLASSIFICATION ( #134, ( #6 ) ) ;
#120 = ORIENTED_EDGE ( 'NONE', *, *, #128, .F. ) ;
#121 = AXIS2_PLACEMENT_3D ( 'NONE', #115, #163, #175 ) ;
#122 = ADVANCED_BREP_SHAPE_REPRESENTATION ( 'Web Model 47230_84479', ( #126, #117 ), #63 ) ;
#123 = ADVANCED_FACE ( 'NONE', ( #43 ), #22, .T. ) ;
#124 = CARTESIAN_POINT ( 'NONE',  ( 0.0000000000000000000, 0.0000000000000000000, 2.000000000000000000 ) ) ;
#125 = APPROVAL ( #88, 'UNSPECIFIED' ) ;
#126 = MANIFOLD_SOLID_BREP ( 'Boss-Extrude1', #153 ) ;
#127 = CARTESIAN_POINT ( 'NONE',  ( 0.0000000000000000000, 0.0000000000000000000, 2.000000000000000000 ) ) ;
#128 = EDGE_CURVE ( 'NONE', #148, #164, #151, .T. ) ;
#129 = DIRECTION ( 'NONE',  ( 0.0000000000000000000, 0.0000000000000000000, 1.000000000000000000 ) ) ;
#130 = APPROVAL_PERSON_ORGANIZATION ( #55, #125, #170 ) ;
#131 = APPROVAL_DATE_TIME ( #95, #109 ) ;
#132 = CC_DESIGN_APPROVAL ( #25, ( #6 ) ) ;
#133 = APPLICATION_CONTEXT ( 'configuration controlled 3d designs of mechanical parts and assemblies' ) ;
#134 = SECURITY_CLASSIFICATION ( '', '', #156 ) ;
#135 = CARTESIAN_POINT ( 'NONE',  ( 0.0000000000000000000, 0.0000000000000000000, 0.0000000000000000000 ) ) ;
#136 = AXIS2_PLACEMENT_3D ( 'NONE', #106, #158, #45 ) ;
#137 = CALENDAR_DATE ( 2019, 7, 1 ) ;
#138 = APPROVAL_PERSON_ORGANIZATION ( #83, #109, #104 ) ;
#139 = CC_DESIGN_APPROVAL ( #125, ( #173 ) ) ;
#140 = ADVANCED_FACE ( 'NONE', ( #69 ), #74, .F. ) ;
#141 = COORDINATED_UNIVERSAL_TIME_OFFSET ( 5, 0, .BEHIND. ) ;
#142 = DATE_TIME_ROLE ( 'creation_date' ) ;
#143 = PERSON_AND_ORGANIZATION_ROLE ( 'creator' ) ;
#144 = EDGE_LOOP ( 'NONE', ( #81, #19, #9, #27 ) ) ;
#145 = CARTESIAN_POINT ( 'NONE',  ( -25.00000000000000000, 0.0000000000000000000, 2.000000000000000000 ) ) ;
#146 = MECHANICAL_CONTEXT ( 'NONE', #133, 'mechanical' ) ;
#147 = CC_DESIGN_DATE_AND_TIME_ASSIGNMENT ( #73, #57, ( #134 ) ) ;
#148 = VERTEX_POINT ( 'NONE', #145 ) ;
#149 = CC_DESIGN_PERSON_AND_ORGANIZATION_ASSIGNMENT ( #14, #108, ( #134 ) ) ;
#150 = DATE_AND_TIME ( #137, #30 ) ;
#151 = LINE ( 'NONE', #107, #161 ) ;
#152 = ORIENTED_EDGE ( 'NONE', *, *, #66, .T. ) ;
#153 = CLOSED_SHELL ( 'NONE', ( #67, #123, #99, #140 ) ) ;
#154 = DESIGN_CONTEXT ( 'detailed design', #165, 'design' ) ;
#155 = ORIENTED_EDGE ( 'NONE', *, *, #77, .T. ) ;
#156 = SECURITY_CLASSIFICATION_LEVEL ( 'unclassified' ) ;
#157 = LINE ( 'NONE', #114, #100 ) ;
#158 = DIRECTION ( 'NONE',  ( 0.0000000000000000000, 0.0000000000000000000, 1.000000000000000000 ) ) ;
#159 = DIRECTION ( 'NONE',  ( 0.0000000000000000000, 0.0000000000000000000, 1.000000000000000000 ) ) ;
#160 = CC_DESIGN_PERSON_AND_ORGANIZATION_ASSIGNMENT ( #49, #5, ( #6 ) ) ;
#161 = VECTOR ( 'NONE', #61, 1000.000000000000000 ) ;
#162 = DATE_AND_TIME ( #20, #24 ) ;
#163 = DIRECTION ( 'NONE',  ( 0.0000000000000000000, 0.0000000000000000000, 1.000000000000000000 ) ) ;
#164 = VERTEX_POINT ( 'NONE', #15 ) ;
#165 = APPLICATION_CONTEXT ( 'configuration controlled 3d designs of mechanical parts and assemblies' ) ;
#166 = ORGANIZATION ( 'UNSPECIFIED', 'UNSPECIFIED', '' ) ;
#167 = CALENDAR_DATE ( 2019, 7, 1 ) ;
#168 = APPROVAL_ROLE ( '' ) ;
#169 =( LENGTH_UNIT ( ) NAMED_UNIT ( * ) SI_UNIT ( .MILLI., .METRE. ) );
#170 = APPROVAL_ROLE ( '' ) ;
#171 = APPROVAL_DATE_TIME ( #162, #125 ) ;
#172 = EDGE_CURVE ( 'NONE', #164, #41, #35, .T. ) ;
#173 = PRODUCT_DEFINITION ( 'UNKNOWN', '', #6, #154 ) ;
#174 = CC_DESIGN_APPROVAL ( #109, ( #134 ) ) ;
#175 = DIRECTION ( 'NONE',  ( 1.000000000000000000, 0.0000000000000000000, 0.0000000000000000000 ) ) ;
ENDSEC;
END-ISO-10303-21;
