ISO-10303-21;
HEADER;
FILE_DESCRIPTION (( 'STEP AP203' ),
    '1' );
FILE_NAME ('25021-E0W.STEP',
    '2012-09-28T16:22:30',
    ( 'Admin' ),
    ( 'Thorlabs, Inc.' ),
    'SwSTEP 2.0',
    'SolidWorks 2011',
    '' );
FILE_SCHEMA (( 'CONFIG_CONTROL_DESIGN' ));
ENDSEC;

DATA;
#1 = EDGE_CURVE ( 'NONE', #28, #27, #104, .T. ) ;
#2 = ORIENTED_EDGE ( 'NONE', *, *, #13, .T. ) ;
#3 = ORIENTED_EDGE ( 'NONE', *, *, #1, .T. ) ;
#4 = ADVANCED_FACE ( 'NONE', ( #154 ), #90, .T. ) ;
#5 = ORIENTED_EDGE ( 'NONE', *, *, #1, .F. ) ;
#6 = ORIENTED_EDGE ( 'NONE', *, *, #12, .F. ) ;
#7 = ORIENTED_EDGE ( 'NONE', *, *, #13, .F. ) ;
#8 = ORIENTED_EDGE ( 'NONE', *, *, #38, .T. ) ;
#9 = ORIENTED_EDGE ( 'NONE', *, *, #34, .T. ) ;
#10 = ORIENTED_EDGE ( 'NONE', *, *, #26, .F. ) ;
#11 = ORIENTED_EDGE ( 'NONE', *, *, #32, .F. ) ;
#12 = EDGE_CURVE ( 'NONE', #28, #273, #106, .T. ) ;
#13 = EDGE_CURVE ( 'NONE', #27, #25, #41, .T. ) ;
#14 = EDGE_CURVE ( 'NONE', #27, #28, #102, .T. ) ;
#15 = VERTEX_POINT ( 'NONE', #43 ) ;
#16 = ORIENTED_EDGE ( 'NONE', *, *, #12, .T. ) ;
#17 = ORIENTED_EDGE ( 'NONE', *, *, #30, .F. ) ;
#18 = MANIFOLD_SOLID_BREP ( '25021-001-1-solid1', #20 ) ;
#19 = ORIENTED_EDGE ( 'NONE', *, *, #38, .F. ) ;
#20 = CLOSED_SHELL ( 'NONE', ( #265, #29, #272, #289, #285, #292, #4, #21, #301 ) ) ;
#21 = ADVANCED_FACE ( 'NONE', ( #58 ), #110, .T. ) ;
#22 = ORIENTED_EDGE ( 'NONE', *, *, #23, .T. ) ;
#23 = EDGE_CURVE ( 'NONE', #273, #25, #127, .T. ) ;
#24 = ORIENTED_EDGE ( 'NONE', *, *, #26, .T. ) ;
#25 = VERTEX_POINT ( 'NONE', #101 ) ;
#26 = EDGE_CURVE ( 'NONE', #35, #25, #144, .T. ) ;
#27 = VERTEX_POINT ( 'NONE', #142 ) ;
#28 = VERTEX_POINT ( 'NONE', #141 ) ;
#29 = ADVANCED_FACE ( 'NONE', ( #97 ), #109, .T. ) ;
#30 = EDGE_CURVE ( 'NONE', #25, #273, #146, .T. ) ;
#31 = ORIENTED_EDGE ( 'NONE', *, *, #30, .T. ) ;
#32 = EDGE_CURVE ( 'NONE', #15, #273, #66, .T. ) ;
#33 = EDGE_LOOP ( 'NONE', ( #269, #16, #17, #7 ) ) ;
#34 = EDGE_CURVE ( 'NONE', #35, #15, #67, .T. ) ;
#35 = VERTEX_POINT ( 'NONE', #86 ) ;
#36 = EDGE_LOOP ( 'NONE', ( #10, #19, #37, #22 ) ) ;
#37 = ORIENTED_EDGE ( 'NONE', *, *, #32, .T. ) ;
#38 = EDGE_CURVE ( 'NONE', #15, #35, #95, .T. ) ;
#39 = VECTOR ( 'NONE', #153, 1000.000000000000000 ) ;
#40 = CARTESIAN_POINT ( 'NONE',  ( 0.0000000000000000000, 12.70000000000000100, -1.749999999999996200 ) ) ;
#41 = LINE ( 'NONE', #40, #39 ) ;
#42 = DIRECTION ( 'NONE',  ( -0.0000000000000000000, 3.061616997868383100E-016, -1.000000000000000000 ) ) ;
#43 = CARTESIAN_POINT ( 'NONE',  ( 0.0000000000000000000, -12.55857864376268700, -1.750000000000005600 ) ) ;
#44 = DIRECTION ( 'NONE',  ( -0.0000000000000000000, 3.061616997868383100E-016, -1.000000000000000000 ) ) ;
#45 = VECTOR ( 'NONE', #44, 1000.000000000000000 ) ;
#46 = DIRECTION ( 'NONE',  ( -1.224646799147353200E-016, 1.000000000000000000, 0.0000000000000000000 ) ) ;
#47 = DIRECTION ( 'NONE',  ( 1.000000000000000000, 1.224646799147353200E-016, 3.749399456654644600E-032 ) ) ;
#48 = DIRECTION ( 'NONE',  ( 1.000000000000000000, 0.0000000000000000000, -0.0000000000000000000 ) ) ;
#49 = CARTESIAN_POINT ( 'NONE',  ( 0.0000000000000000000, 2.541388148969640400E-015, 36.25000000000000700 ) ) ;
#50 = VECTOR ( 'NONE', #111, 1000.000000000000100 ) ;
#51 = CARTESIAN_POINT ( 'NONE',  ( 0.0000000000000000000, 2.541388148969640400E-015, 36.25000000000000700 ) ) ;
#52 = SPHERICAL_SURFACE ( 'NONE', #76, 34.50000000000000000 ) ;
#53 = DIRECTION ( 'NONE',  ( 0.0000000000000000000, 0.7071067811865412400, -0.7071067811865536800 ) ) ;
#54 = VECTOR ( 'NONE', #53, 1000.000000000000100 ) ;
#55 = CIRCLE ( 'NONE', #134, 34.50000000000000000 ) ;
#56 = DIRECTION ( 'NONE',  ( -0.0000000000000000000, 3.061616997868383100E-016, -1.000000000000000000 ) ) ;
#57 = CARTESIAN_POINT ( 'NONE',  ( 0.0000000000000000000, 2.304250726929069400E-017, 3.975541089736959000 ) ) ;
#58 = FACE_OUTER_BOUND ( 'NONE', #36, .T. ) ;
#59 = AXIS2_PLACEMENT_3D ( 'NONE', #57, #56, #155 ) ;
#60 = CARTESIAN_POINT ( 'NONE',  ( 0.0000000000000000000, 1.521648252014474900E-014, 1.750000000000001600 ) ) ;
#61 = CONICAL_SURFACE ( 'NONE', #63, 12.55857864376268800, 0.7853981633974498300 ) ;
#62 = CIRCLE ( 'NONE', #124, 12.55857864376269200 ) ;
#63 = AXIS2_PLACEMENT_3D ( 'NONE', #77, #80, #117 ) ;
#64 = DIRECTION ( 'NONE',  ( 0.0000000000000000000, -0.7071067811865489100, 0.7071067811865462400 ) ) ;
#65 = VECTOR ( 'NONE', #64, 999.9999999999998900 ) ;
#66 = LINE ( 'NONE', #92, #65 ) ;
#67 = CIRCLE ( 'NONE', #98, 12.55857864376268800 ) ;
#68 = DIRECTION ( 'NONE',  ( 0.0000000000000000000, 1.000000000000000000, 2.762611160361479200E-016 ) ) ;
#69 = DIRECTION ( 'NONE',  ( -0.0000000000000000000, 3.061616997868383100E-016, -1.000000000000000000 ) ) ;
#70 = AXIS2_PLACEMENT_3D ( 'NONE', #75, #69, #68 ) ;
#71 = CIRCLE ( 'NONE', #70, 12.55857864376269200 ) ;
#72 = CARTESIAN_POINT ( 'NONE',  ( 0.0000000000000000000, 2.541388148969640400E-015, 36.25000000000000700 ) ) ;
#73 = AXIS2_PLACEMENT_3D ( 'NONE', #72, #261, #262 ) ;
#74 = DIRECTION ( 'NONE',  ( 0.0000000000000000000, 1.000000000000000000, 4.022547190670856700E-016 ) ) ;
#75 = CARTESIAN_POINT ( 'NONE',  ( 0.0000000000000000000, -2.025529554248473800E-017, 4.116962445974271700 ) ) ;
#76 = AXIS2_PLACEMENT_3D ( 'NONE', #49, #48, #74 ) ;
#77 = CARTESIAN_POINT ( 'NONE',  ( 0.0000000000000000000, 1.775983899502545100E-015, -1.750000000000001600 ) ) ;
#78 = CONICAL_SURFACE ( 'NONE', #83, 12.70000000000000100, 0.7853981633974391800 ) ;
#79 = CARTESIAN_POINT ( 'NONE',  ( 0.0000000000000000000, 12.55857864376269700, 4.116962445974278000 ) ) ;
#80 = DIRECTION ( 'NONE',  ( 0.0000000000000000000, -3.061616997868383100E-016, 1.000000000000000000 ) ) ;
#81 = CARTESIAN_POINT ( 'NONE',  ( 0.0000000000000000000, 2.304250726929069400E-017, 3.975541089736959000 ) ) ;
#82 = DIRECTION ( 'NONE',  ( 0.0000000000000000000, 1.000000000000000000, 2.762611160361479200E-016 ) ) ;
#83 = AXIS2_PLACEMENT_3D ( 'NONE', #81, #137, #136 ) ;
#84 = DIRECTION ( 'NONE',  ( 0.0000000000000000000, 1.000000000000000000, 3.073328992872296900E-016 ) ) ;
#85 = AXIS2_PLACEMENT_3D ( 'NONE', #89, #91, #84 ) ;
#86 = CARTESIAN_POINT ( 'NONE',  ( 1.546641874354783400E-015, 12.55857864376269000, -1.749999999999997600 ) ) ;
#87 = DIRECTION ( 'NONE',  ( 0.0000000000000000000, 1.000000000000000000, 3.073328992872296400E-016 ) ) ;
#88 = DIRECTION ( 'NONE',  ( -0.0000000000000000000, 3.061616997868383100E-016, -1.000000000000000000 ) ) ;
#89 = CARTESIAN_POINT ( 'NONE',  ( 0.0000000000000000000, 1.732686096690770600E-015, -1.608578643762692300 ) ) ;
#90 = CYLINDRICAL_SURFACE ( 'NONE', #128, 12.69999999999999900 ) ;
#91 = DIRECTION ( 'NONE',  ( -0.0000000000000000000, 3.061616997868383100E-016, -1.000000000000000000 ) ) ;
#92 = CARTESIAN_POINT ( 'NONE',  ( 0.0000000000000000000, -12.55857864376268700, -1.750000000000005600 ) ) ;
#93 = CARTESIAN_POINT ( 'NONE',  ( 0.0000000000000000000, 1.775983899502544700E-015, -1.750000000000000000 ) ) ;
#94 = AXIS2_PLACEMENT_3D ( 'NONE', #93, #88, #87 ) ;
#95 = CIRCLE ( 'NONE', #116, 12.55857864376268800 ) ;
#96 = CARTESIAN_POINT ( 'NONE',  ( 0.0000000000000000000, -2.025529554248473800E-017, 4.116962445974271700 ) ) ;
#97 = FACE_OUTER_BOUND ( 'NONE', #33, .T. ) ;
#98 = AXIS2_PLACEMENT_3D ( 'NONE', #143, #123, #122 ) ;
#99 = CARTESIAN_POINT ( 'NONE',  ( 0.0000000000000000000, 1.732686096690770600E-015, -1.608578643762692300 ) ) ;
#100 = DIRECTION ( 'NONE',  ( 0.0000000000000000000, -1.000000000000000000, -3.107937555406665100E-016 ) ) ;
#101 = CARTESIAN_POINT ( 'NONE',  ( 0.0000000000000000000, 12.69999999999999900, -1.608578643762688300 ) ) ;
#102 = CIRCLE ( 'NONE', #147, 12.70000000000000100 ) ;
#103 = CARTESIAN_POINT ( 'NONE',  ( 0.0000000000000000000, 1.775983899502544700E-015, -1.750000000000000000 ) ) ;
#104 = CIRCLE ( 'NONE', #59, 12.70000000000000100 ) ;
#105 = CARTESIAN_POINT ( 'NONE',  ( 1.555301434917138400E-015, -12.69999999999999800, -1.750000000000004000 ) ) ;
#106 = LINE ( 'NONE', #105, #45 ) ;
#107 = CARTESIAN_POINT ( 'NONE',  ( 0.0000000000000000000, 2.304250726929069400E-017, 3.975541089736959000 ) ) ;
#108 = CARTESIAN_POINT ( 'NONE',  ( 0.0000000000000000000, 1.775983899502545100E-015, -1.750000000000001600 ) ) ;
#109 = CYLINDRICAL_SURFACE ( 'NONE', #94, 12.69999999999999900 ) ;
#110 = CONICAL_SURFACE ( 'NONE', #152, 12.55857864376268800, 0.7853981633974498300 ) ;
#111 = DIRECTION ( 'NONE',  ( 8.659560562354852700E-017, -0.7071067811865408000, -0.7071067811865541200 ) ) ;
#112 = CARTESIAN_POINT ( 'NONE',  ( 1.555301434917138600E-015, -12.70000000000000100, 3.975541089736955900 ) ) ;
#113 = DIRECTION ( 'NONE',  ( 0.0000000000000000000, 1.000000000000000000, 3.107937555406665100E-016 ) ) ;
#114 = DIRECTION ( 'NONE',  ( -0.0000000000000000000, 3.061616997868383100E-016, -1.000000000000000000 ) ) ;
#115 = CARTESIAN_POINT ( 'NONE',  ( 0.0000000000000000000, 1.775983899502545100E-015, -1.750000000000001600 ) ) ;
#116 = AXIS2_PLACEMENT_3D ( 'NONE', #115, #114, #113 ) ;
#117 = DIRECTION ( 'NONE',  ( 0.0000000000000000000, -1.000000000000000000, -3.107937555406665100E-016 ) ) ;
#118 = CIRCLE ( 'NONE', #73, 34.50000000000000000 ) ;
#119 = FACE_OUTER_BOUND ( 'NONE', #267, .T. ) ;
#120 = DIRECTION ( 'NONE',  ( -0.0000000000000000000, 3.061616997868383100E-016, -1.000000000000000000 ) ) ;
#121 = FACE_OUTER_BOUND ( 'NONE', #264, .T. ) ;
#122 = DIRECTION ( 'NONE',  ( 0.0000000000000000000, 1.000000000000000000, 3.107937555406665100E-016 ) ) ;
#123 = DIRECTION ( 'NONE',  ( -0.0000000000000000000, 3.061616997868383100E-016, -1.000000000000000000 ) ) ;
#124 = AXIS2_PLACEMENT_3D ( 'NONE', #96, #120, #82 ) ;
#125 = DIRECTION ( 'NONE',  ( 0.0000000000000000000, 1.000000000000000000, 3.073328992872296400E-016 ) ) ;
#126 = DIRECTION ( 'NONE',  ( -0.0000000000000000000, 3.061616997868383100E-016, -1.000000000000000000 ) ) ;
#127 = CIRCLE ( 'NONE', #151, 12.69999999999999800 ) ;
#128 = AXIS2_PLACEMENT_3D ( 'NONE', #103, #126, #125 ) ;
#129 = LINE ( 'NONE', #131, #54 ) ;
#130 = FACE_OUTER_BOUND ( 'NONE', #297, .T. ) ;
#131 = CARTESIAN_POINT ( 'NONE',  ( 0.0000000000000000000, 12.70000000000000100, 3.975541089736962500 ) ) ;
#132 = LINE ( 'NONE', #112, #50 ) ;
#133 = CARTESIAN_POINT ( 'NONE',  ( 1.555301434917138400E-015, -12.69999999999999600, -1.608578643762696100 ) ) ;
#134 = AXIS2_PLACEMENT_3D ( 'NONE', #51, #47, #46 ) ;
#135 = CARTESIAN_POINT ( 'NONE',  ( 1.537982313792429600E-015, -12.55857864376268500, 4.116962445974267300 ) ) ;
#136 = DIRECTION ( 'NONE',  ( 0.0000000000000000000, 1.000000000000000000, 2.731847993664262700E-016 ) ) ;
#137 = DIRECTION ( 'NONE',  ( -0.0000000000000000000, 3.061616997868383100E-016, -1.000000000000000000 ) ) ;
#138 = DIRECTION ( 'NONE',  ( 8.659560562354946400E-017, 0.7071067811865483500, 0.7071067811865466800 ) ) ;
#139 = VECTOR ( 'NONE', #138, 1000.000000000000000 ) ;
#140 = CARTESIAN_POINT ( 'NONE',  ( 1.537982313792428500E-015, 12.55857864376269000, -1.749999999999997600 ) ) ;
#141 = CARTESIAN_POINT ( 'NONE',  ( 1.555301434917138600E-015, -12.70000000000000100, 3.975541089736955900 ) ) ;
#142 = CARTESIAN_POINT ( 'NONE',  ( 0.0000000000000000000, 12.70000000000000100, 3.975541089736962500 ) ) ;
#143 = CARTESIAN_POINT ( 'NONE',  ( 0.0000000000000000000, 1.775983899502545100E-015, -1.750000000000001600 ) ) ;
#144 = LINE ( 'NONE', #140, #139 ) ;
#145 = DIRECTION ( 'NONE',  ( 0.0000000000000000000, 1.000000000000000000, 3.073328992872296900E-016 ) ) ;
#146 = CIRCLE ( 'NONE', #85, 12.69999999999999800 ) ;
#147 = AXIS2_PLACEMENT_3D ( 'NONE', #107, #149, #148 ) ;
#148 = DIRECTION ( 'NONE',  ( 0.0000000000000000000, 1.000000000000000000, 2.731847993664262700E-016 ) ) ;
#149 = DIRECTION ( 'NONE',  ( -0.0000000000000000000, 3.061616997868383100E-016, -1.000000000000000000 ) ) ;
#150 = DIRECTION ( 'NONE',  ( 0.0000000000000000000, -3.061616997868383100E-016, 1.000000000000000000 ) ) ;
#151 = AXIS2_PLACEMENT_3D ( 'NONE', #99, #42, #145 ) ;
#152 = AXIS2_PLACEMENT_3D ( 'NONE', #108, #150, #100 ) ;
#153 = DIRECTION ( 'NONE',  ( -0.0000000000000000000, 3.061616997868383100E-016, -1.000000000000000000 ) ) ;
#154 = FACE_OUTER_BOUND ( 'NONE', #295, .T. ) ;
#155 = DIRECTION ( 'NONE',  ( 0.0000000000000000000, 1.000000000000000000, 2.731847993664262700E-016 ) ) ;
#156 = DIRECTION ( 'NONE',  ( -0.0000000000000000000, 3.061616997868383100E-016, -1.000000000000000000 ) ) ;
#157 = FACE_OUTER_BOUND ( 'NONE', #291, .T. ) ;
#158 = SHAPE_DEFINITION_REPRESENTATION ( #176, #239 ) ;
#159 = DIRECTION ( 'NONE',  ( 1.000000000000000000, 0.0000000000000000000, 0.0000000000000000000 ) ) ;
#160 = AXIS2_PLACEMENT_3D ( 'NONE', #169, #237, #159 ) ;
#161 = DIRECTION ( 'NONE',  ( 0.0000000000000000000, 1.000000000000000000, 2.731847993664262700E-016 ) ) ;
#162 = FACE_OUTER_BOUND ( 'NONE', #290, .T. ) ;
#163 = DIRECTION ( 'NONE',  ( 0.0000000000000000000, 1.000000000000000000, 4.022547190670856700E-016 ) ) ;
#164 = AXIS2_PLACEMENT_3D ( 'NONE', #260, #156, #161 ) ;
#165 = SPHERICAL_SURFACE ( 'NONE', #259, 34.50000000000000000 ) ;
#166 =( GEOMETRIC_REPRESENTATION_CONTEXT ( 3 ) GLOBAL_UNCERTAINTY_ASSIGNED_CONTEXT ( ( #167 ) ) GLOBAL_UNIT_ASSIGNED_CONTEXT ( ( #220, #219, #218 ) ) REPRESENTATION_CONTEXT ( 'NONE', 'WORKASPACE' ) );
#167 = UNCERTAINTY_MEASURE_WITH_UNIT (LENGTH_MEASURE( 1.000000000000000100E-005 ), #220, 'distance_accuracy_value', 'NONE');
#168 = FACE_OUTER_BOUND ( 'NONE', #296, .T. ) ;
#169 = CARTESIAN_POINT ( 'NONE',  ( 0.0000000000000000000, 0.0000000000000000000, 0.0000000000000000000 ) ) ;
#170 = PERSON ( 'UNSPECIFIED', 'UNSPECIFIED', 'UNSPECIFIED', ('UNSPECIFIED'), ('UNSPECIFIED'), ('UNSPECIFIED') ) ;
#171 = PRODUCT ( '25021-E0W', '25021-E0W', '', ( #172 ) ) ;
#172 = MECHANICAL_CONTEXT ( 'NONE', #238, 'mechanical' ) ;
#173 = APPLICATION_PROTOCOL_DEFINITION ( 'international standard', 'config_control_design', 1994, #238 ) ;
#174 = DIRECTION ( 'NONE',  ( -0.0000000000000000000, 3.061616997868383100E-016, -1.000000000000000000 ) ) ;
#175 = DIRECTION ( 'NONE',  ( 1.000000000000000000, 0.0000000000000000000, -0.0000000000000000000 ) ) ;
#176 = PRODUCT_DEFINITION_SHAPE ( 'NONE', 'NONE',  #250 ) ;
#177 = PRODUCT_RELATED_PRODUCT_CATEGORY ( 'detail', '', ( #171 ) ) ;
#178 = CC_DESIGN_SECURITY_CLASSIFICATION ( #233, ( #207 ) ) ;
#179 = CC_DESIGN_APPROVAL ( #187, ( #233 ) ) ;
#180 = APPROVAL_DATE_TIME ( #181, #187 ) ;
#181 = DATE_AND_TIME ( #182, #183 ) ;
#182 = CALENDAR_DATE ( 2012, 28, 9 ) ;
#183 = LOCAL_TIME ( 12, 22, 30.00000000000000000, #184 ) ;
#184 = COORDINATED_UNIVERSAL_TIME_OFFSET ( 5, 0, .BEHIND. ) ;
#185 = APPROVAL_PERSON_ORGANIZATION ( #189, #187, #186 ) ;
#186 = APPROVAL_ROLE ( '' ) ;
#187 = APPROVAL ( #188, 'UNSPECIFIED' ) ;
#188 = APPROVAL_STATUS ( 'not_yet_approved' ) ;
#189 = PERSON_AND_ORGANIZATION ( #170, #257 ) ;
#190 = DIRECTION ( 'NONE',  ( 0.0000000000000000000, 1.000000000000000000, 3.061616997868383100E-016 ) ) ;
#191 = PLANE ( 'NONE',  #223 ) ;
#192 = PERSON_AND_ORGANIZATION_ROLE ( 'design_supplier' ) ;
#193 = CC_DESIGN_PERSON_AND_ORGANIZATION_ASSIGNMENT ( #195, #194, ( #207 ) ) ;
#194 = PERSON_AND_ORGANIZATION_ROLE ( 'creator' ) ;
#195 = PERSON_AND_ORGANIZATION ( #170, #257 ) ;
#196 = CC_DESIGN_APPROVAL ( #204, ( #207 ) ) ;
#197 = APPROVAL_DATE_TIME ( #198, #204 ) ;
#198 = DATE_AND_TIME ( #199, #200 ) ;
#199 = CALENDAR_DATE ( 2012, 28, 9 ) ;
#200 = LOCAL_TIME ( 12, 22, 30.00000000000000000, #201 ) ;
#201 = COORDINATED_UNIVERSAL_TIME_OFFSET ( 5, 0, .BEHIND. ) ;
#202 = APPROVAL_PERSON_ORGANIZATION ( #206, #204, #203 ) ;
#203 = APPROVAL_ROLE ( '' ) ;
#204 = APPROVAL ( #205, 'UNSPECIFIED' ) ;
#205 = APPROVAL_STATUS ( 'not_yet_approved' ) ;
#206 = PERSON_AND_ORGANIZATION ( #170, #257 ) ;
#207 = PRODUCT_DEFINITION_FORMATION_WITH_SPECIFIED_SOURCE ( 'ANY', '', #171, .NOT_KNOWN. ) ;
#208 = CC_DESIGN_DATE_AND_TIME_ASSIGNMENT ( #210, #209, ( #250 ) ) ;
#209 = DATE_TIME_ROLE ( 'creation_date' ) ;
#210 = DATE_AND_TIME ( #211, #212 ) ;
#211 = CALENDAR_DATE ( 2012, 28, 9 ) ;
#212 = LOCAL_TIME ( 12, 22, 30.00000000000000000, #213 ) ;
#213 = COORDINATED_UNIVERSAL_TIME_OFFSET ( 5, 0, .BEHIND. ) ;
#214 = CC_DESIGN_PERSON_AND_ORGANIZATION_ASSIGNMENT ( #216, #215, ( #250 ) ) ;
#215 = PERSON_AND_ORGANIZATION_ROLE ( 'creator' ) ;
#216 = PERSON_AND_ORGANIZATION ( #170, #257 ) ;
#217 = CC_DESIGN_APPROVAL ( #247, ( #250 ) ) ;
#218 =( NAMED_UNIT ( * ) SI_UNIT ( $, .STERADIAN. ) SOLID_ANGLE_UNIT ( ) );
#219 =( NAMED_UNIT ( * ) PLANE_ANGLE_UNIT ( ) SI_UNIT ( $, .RADIAN. ) );
#220 =( LENGTH_UNIT ( ) NAMED_UNIT ( * ) SI_UNIT ( .MILLI., .METRE. ) );
#221 = CONICAL_SURFACE ( 'NONE', #164, 12.70000000000000100, 0.7853981633974391800 ) ;
#222 = CARTESIAN_POINT ( 'NONE',  ( 0.0000000000000000000, 1.775983899502545100E-015, -1.750000000000000900 ) ) ;
#223 = AXIS2_PLACEMENT_3D ( 'NONE', #222, #174, #190 ) ;
#224 = CC_DESIGN_DATE_AND_TIME_ASSIGNMENT ( #226, #225, ( #233 ) ) ;
#225 = DATE_TIME_ROLE ( 'classification_date' ) ;
#226 = DATE_AND_TIME ( #227, #228 ) ;
#227 = CALENDAR_DATE ( 2012, 28, 9 ) ;
#228 = LOCAL_TIME ( 12, 22, 30.00000000000000000, #229 ) ;
#229 = COORDINATED_UNIVERSAL_TIME_OFFSET ( 5, 0, .BEHIND. ) ;
#230 = CC_DESIGN_PERSON_AND_ORGANIZATION_ASSIGNMENT ( #232, #231, ( #233 ) ) ;
#231 = PERSON_AND_ORGANIZATION_ROLE ( 'classification_officer' ) ;
#232 = PERSON_AND_ORGANIZATION ( #170, #257 ) ;
#233 = SECURITY_CLASSIFICATION ( '', '', #234 ) ;
#234 = SECURITY_CLASSIFICATION_LEVEL ( 'unclassified' ) ;
#235 = CC_DESIGN_PERSON_AND_ORGANIZATION_ASSIGNMENT ( #236, #192, ( #207 ) ) ;
#236 = PERSON_AND_ORGANIZATION ( #170, #257 ) ;
#237 = DIRECTION ( 'NONE',  ( 0.0000000000000000000, 0.0000000000000000000, 1.000000000000000000 ) ) ;
#238 = APPLICATION_CONTEXT ( 'configuration controlled 3d designs of mechanical parts and assemblies' ) ;
#239 = ADVANCED_BREP_SHAPE_REPRESENTATION ( '25021-E0W', ( #18, #160 ), #166 ) ;
#240 = APPROVAL_DATE_TIME ( #241, #247 ) ;
#241 = DATE_AND_TIME ( #242, #243 ) ;
#242 = CALENDAR_DATE ( 2012, 28, 9 ) ;
#243 = LOCAL_TIME ( 12, 22, 30.00000000000000000, #244 ) ;
#244 = COORDINATED_UNIVERSAL_TIME_OFFSET ( 5, 0, .BEHIND. ) ;
#245 = APPROVAL_PERSON_ORGANIZATION ( #249, #247, #246 ) ;
#246 = APPROVAL_ROLE ( '' ) ;
#247 = APPROVAL ( #248, 'UNSPECIFIED' ) ;
#248 = APPROVAL_STATUS ( 'not_yet_approved' ) ;
#249 = PERSON_AND_ORGANIZATION ( #170, #257 ) ;
#250 = PRODUCT_DEFINITION ( 'UNKNOWN', '', #207, #251 ) ;
#251 = DESIGN_CONTEXT ( 'detailed design', #253, 'design' ) ;
#252 = APPLICATION_PROTOCOL_DEFINITION ( 'international standard', 'config_control_design', 1994, #253 ) ;
#253 = APPLICATION_CONTEXT ( 'configuration controlled 3d designs of mechanical parts and assemblies' ) ;
#254 = CC_DESIGN_PERSON_AND_ORGANIZATION_ASSIGNMENT ( #256, #255, ( #171 ) ) ;
#255 = PERSON_AND_ORGANIZATION_ROLE ( 'design_owner' ) ;
#256 = PERSON_AND_ORGANIZATION ( #170, #257 ) ;
#257 = ORGANIZATION ( 'UNSPECIFIED', 'UNSPECIFIED', '' ) ;
#258 = CARTESIAN_POINT ( 'NONE',  ( 0.0000000000000000000, 2.541388148969640400E-015, 36.25000000000000700 ) ) ;
#259 = AXIS2_PLACEMENT_3D ( 'NONE', #258, #175, #163 ) ;
#260 = CARTESIAN_POINT ( 'NONE',  ( 0.0000000000000000000, 2.304250726929069400E-017, 3.975541089736959000 ) ) ;
#261 = DIRECTION ( 'NONE',  ( -1.000000000000000000, 0.0000000000000000000, 0.0000000000000000000 ) ) ;
#262 = DIRECTION ( 'NONE',  ( 0.0000000000000000000, 0.0000000000000000000, 1.000000000000000000 ) ) ;
#263 = EDGE_CURVE ( 'NONE', #266, #274, #62, .T. ) ;
#264 = EDGE_LOOP ( 'NONE', ( #268, #24, #31, #11 ) ) ;
#265 = ADVANCED_FACE ( 'NONE', ( #121 ), #61, .T. ) ;
#266 = VERTEX_POINT ( 'NONE', #79 ) ;
#267 = EDGE_LOOP ( 'NONE', ( #271, #278, #281, #270 ) ) ;
#268 = ORIENTED_EDGE ( 'NONE', *, *, #34, .F. ) ;
#269 = ORIENTED_EDGE ( 'NONE', *, *, #14, .T. ) ;
#270 = ORIENTED_EDGE ( 'NONE', *, *, #280, .F. ) ;
#271 = ORIENTED_EDGE ( 'NONE', *, *, #263, .T. ) ;
#272 = ADVANCED_FACE ( 'NONE', ( #119 ), #78, .T. ) ;
#273 = VERTEX_POINT ( 'NONE', #133 ) ;
#274 = VERTEX_POINT ( 'NONE', #135 ) ;
#275 = VERTEX_POINT ( 'NONE', #60 ) ;
#276 = ORIENTED_EDGE ( 'NONE', *, *, #23, .F. ) ;
#277 = ORIENTED_EDGE ( 'NONE', *, *, #283, .T. ) ;
#278 = ORIENTED_EDGE ( 'NONE', *, *, #282, .T. ) ;
#279 = ORIENTED_EDGE ( 'NONE', *, *, #286, .F. ) ;
#280 = EDGE_CURVE ( 'NONE', #266, #27, #129, .T. ) ;
#281 = ORIENTED_EDGE ( 'NONE', *, *, #14, .F. ) ;
#282 = EDGE_CURVE ( 'NONE', #274, #28, #132, .T. ) ;
#283 = EDGE_CURVE ( 'NONE', #274, #275, #55, .T. ) ;
#284 = ORIENTED_EDGE ( 'NONE', *, *, #286, .T. ) ;
#285 = ADVANCED_FACE ( 'NONE', ( #130 ), #52, .F. ) ;
#286 = EDGE_CURVE ( 'NONE', #274, #266, #71, .T. ) ;
#287 = EDGE_CURVE ( 'NONE', #266, #275, #118, .T. ) ;
#288 = ORIENTED_EDGE ( 'NONE', *, *, #287, .F. ) ;
#289 = ADVANCED_FACE ( 'NONE', ( #162 ), #165, .F. ) ;
#290 = EDGE_LOOP ( 'NONE', ( #279, #277, #288 ) ) ;
#291 = EDGE_LOOP ( 'NONE', ( #294, #284, #299, #5 ) ) ;
#292 = ADVANCED_FACE ( 'NONE', ( #157 ), #221, .T. ) ;
#293 = ORIENTED_EDGE ( 'NONE', *, *, #263, .F. ) ;
#294 = ORIENTED_EDGE ( 'NONE', *, *, #282, .F. ) ;
#295 = EDGE_LOOP ( 'NONE', ( #6, #3, #2, #276 ) ) ;
#296 = EDGE_LOOP ( 'NONE', ( #8, #9 ) ) ;
#297 = EDGE_LOOP ( 'NONE', ( #298, #293, #300 ) ) ;
#298 = ORIENTED_EDGE ( 'NONE', *, *, #283, .F. ) ;
#299 = ORIENTED_EDGE ( 'NONE', *, *, #280, .T. ) ;
#300 = ORIENTED_EDGE ( 'NONE', *, *, #287, .T. ) ;
#301 = ADVANCED_FACE ( 'NONE', ( #168 ), #191, .T. ) ;
ENDSEC;
END-ISO-10303-21;
