ISO-10303-21;
HEADER;
FILE_DESCRIPTION (( 'STEP AP203' ),
    '1' );
FILE_NAME ('TTN162797-E0W.STEP',
    '2019-10-24T14:17:31',
    ( '' ),
    ( '' ),
    'SwSTEP 2.0',
    'SolidWorks 2018',
    '' );
FILE_SCHEMA (( 'CONFIG_CONTROL_DESIGN' ));
ENDSEC;

DATA;
#1 = FACE_OUTER_BOUND ( 'NONE', #313, .T. ) ;
#2 = EDGE_CURVE ( 'NONE', #307, #317, #8, .T. ) ;
#3 = PERSON_AND_ORGANIZATION ( #66, #90 ) ;
#4 = CONICAL_SURFACE ( 'NONE', #285, 1.500000000000000000, 0.7853981633974375098 ) ;
#5 = ORIENTED_EDGE ( 'NONE', *, *, #53, .T. ) ;
#6 = EDGE_CURVE ( 'NONE', #209, #133, #273, .T. ) ;
#7 = CIRCLE ( 'NONE', #228, 1.449999999999999956 ) ;
#8 = CIRCLE ( 'NONE', #36, 1.449999999999999956 ) ;
#9 = CALENDAR_DATE ( 2019, 24, 10 ) ;
#10 = PERSON_AND_ORGANIZATION ( #66, #90 ) ;
#11 = CC_DESIGN_PERSON_AND_ORGANIZATION_ASSIGNMENT ( #171, #137, ( #57 ) ) ;
#12 = DIRECTION ( 'NONE',  ( -0.7071067811865398012, 8.659560562354836716E-17, 0.7071067811865551223 ) ) ;
#13 = CARTESIAN_POINT ( 'NONE',  ( -1.206599072981593412, 1.733215939130163141, 1.924946360380614507 ) ) ;
#14 = CARTESIAN_POINT ( 'NONE',  ( 0.2934009270184065876, 3.183215939130163097, 3.111766055888028681 ) ) ;
#15 = DIRECTION ( 'NONE',  ( 0.0000000000000000000, 0.0000000000000000000, -1.000000000000000000 ) ) ;
#16 = CARTESIAN_POINT ( 'NONE',  ( 1.793400927018406366, 1.733215939130162919, 3.061766055888028415 ) ) ;
#17 = ORIENTED_EDGE ( 'NONE', *, *, #88, .F. ) ;
#18 = CALENDAR_DATE ( 2019, 24, 10 ) ;
#19 = FACE_OUTER_BOUND ( 'NONE', #264, .T. ) ;
#20 = CARTESIAN_POINT ( 'NONE',  ( 0.2934009270184065876, 1.733215939130162919, -0.7510536396193869813 ) ) ;
#21 = EDGE_CURVE ( 'NONE', #49, #139, #252, .T. ) ;
#22 = ADVANCED_FACE ( 'NONE', ( #1 ), #300, .T. ) ;
#23 = CARTESIAN_POINT ( 'NONE',  ( 1.793400927018406588, 1.733215939130162919, 1.924946360380614507 ) ) ;
#24 = CARTESIAN_POINT ( 'NONE',  ( 0.2934009270184065876, 1.733215939130162919, 3.061766055888028415 ) ) ;
#25 = CLOSED_SHELL ( 'NONE', ( #278, #258, #22, #27, #202, #132, #233, #51, #231 ) ) ;
#26 = FACE_OUTER_BOUND ( 'NONE', #253, .T. ) ;
#27 = ADVANCED_FACE ( 'NONE', ( #127 ), #267, .T. ) ;
#28 = APPROVAL_ROLE ( '' ) ;
#29 = EDGE_CURVE ( 'NONE', #307, #139, #151, .T. ) ;
#30 =( LENGTH_UNIT ( ) NAMED_UNIT ( * ) SI_UNIT ( .MILLI., .METRE. ) );
#31 = ORIENTED_EDGE ( 'NONE', *, *, #197, .T. ) ;
#32 =( NAMED_UNIT ( * ) PLANE_ANGLE_UNIT ( ) SI_UNIT ( $, .RADIAN. ) );
#33 = FACE_OUTER_BOUND ( 'NONE', #321, .T. ) ;
#34 = PRODUCT_DEFINITION ( 'UNKNOWN', '', #266, #284 ) ;
#35 = VECTOR ( 'NONE', #295, 1000.000000000000114 ) ;
#36 = AXIS2_PLACEMENT_3D ( 'NONE', #290, #175, #42 ) ;
#37 = ORIENTED_EDGE ( 'NONE', *, *, #88, .T. ) ;
#38 = DIRECTION ( 'NONE',  ( 1.000000000000000000, 0.0000000000000000000, 0.0000000000000000000 ) ) ;
#39 = ORIENTED_EDGE ( 'NONE', *, *, #29, .F. ) ;
#40 = DATE_AND_TIME ( #9, #163 ) ;
#41 = AXIS2_PLACEMENT_3D ( 'NONE', #251, #225, #48 ) ;
#42 = DIRECTION ( 'NONE',  ( 1.000000000000000000, 0.0000000000000000000, 0.0000000000000000000 ) ) ;
#43 = EDGE_LOOP ( 'NONE', ( #192, #128, #77, #17 ) ) ;
#44 = DIRECTION ( 'NONE',  ( -0.0000000000000000000, -0.0000000000000000000, 1.000000000000000000 ) ) ;
#45 = APPROVAL_DATE_TIME ( #50, #67 ) ;
#46 = DIRECTION ( 'NONE',  ( -0.0000000000000000000, -0.0000000000000000000, 1.000000000000000000 ) ) ;
#47 = DIRECTION ( 'NONE',  ( -0.0000000000000000000, -0.0000000000000000000, 1.000000000000000000 ) ) ;
#48 = DIRECTION ( 'NONE',  ( 1.000000000000000000, 0.0000000000000000000, 0.0000000000000000000 ) ) ;
#49 = VERTEX_POINT ( 'NONE', #14 ) ;
#50 = DATE_AND_TIME ( #18, #268 ) ;
#51 = ADVANCED_FACE ( 'NONE', ( #259 ), #59, .T. ) ;
#52 = LOCAL_TIME ( 10, 17, 31.00000000000000000, #211 ) ;
#53 = EDGE_CURVE ( 'NONE', #260, #184, #240, .T. ) ;
#54 = PERSON_AND_ORGANIZATION_ROLE ( 'design_supplier' ) ;
#55 = APPROVAL_STATUS ( 'not_yet_approved' ) ;
#56 = ORIENTED_EDGE ( 'NONE', *, *, #63, .F. ) ;
#57 = SECURITY_CLASSIFICATION ( '', '', #58 ) ;
#58 = SECURITY_CLASSIFICATION_LEVEL ( 'unclassified' ) ;
#59 = SPHERICAL_SURFACE ( 'NONE', #180, 4.126000000000000334 ) ;
#60 = EDGE_LOOP ( 'NONE', ( #241, #118 ) ) ;
#61 = VECTOR ( 'NONE', #227, 1000.000000000000114 ) ;
#62 = ORIENTED_EDGE ( 'NONE', *, *, #186, .T. ) ;
#63 = EDGE_CURVE ( 'NONE', #133, #65, #187, .T. ) ;
#64 = ORIENTED_EDGE ( 'NONE', *, *, #29, .T. ) ;
#65 = VERTEX_POINT ( 'NONE', #100 ) ;
#66 = PERSON ( 'UNSPECIFIED', 'UNSPECIFIED', 'UNSPECIFIED', ('UNSPECIFIED'), ('UNSPECIFIED'), ('UNSPECIFIED') ) ;
#67 = APPROVAL ( #55, 'UNSPECIFIED' ) ;
#68 = COORDINATED_UNIVERSAL_TIME_OFFSET ( 5, 0, .BEHIND. ) ;
#69 = CARTESIAN_POINT ( 'NONE',  ( 0.2934009270184065876, 1.733215939130162919, 3.111766055888028681 ) ) ;
#70 = VECTOR ( 'NONE', #218, 1000.000000000000000 ) ;
#71 = CARTESIAN_POINT ( 'NONE',  ( 0.2934009270184065876, 1.733215939130162919, -0.7510536396193869813 ) ) ;
#72 = DIRECTION ( 'NONE',  ( -1.000000000000000000, 0.0000000000000000000, 0.0000000000000000000 ) ) ;
#73 = DIRECTION ( 'NONE',  ( -0.0000000000000000000, -0.0000000000000000000, 1.000000000000000000 ) ) ;
#74 = VERTEX_POINT ( 'NONE', #97 ) ;
#75 = CARTESIAN_POINT ( 'NONE',  ( 0.2934009270184065876, 1.733215939130162919, 3.374946360380613353 ) ) ;
#76 = DIRECTION ( 'NONE',  ( 1.000000000000000000, 0.0000000000000000000, 0.0000000000000000000 ) ) ;
#77 = ORIENTED_EDGE ( 'NONE', *, *, #197, .F. ) ;
#78 = LINE ( 'NONE', #196, #70 ) ;
#79 = DIRECTION ( 'NONE',  ( 1.000000000000000000, 0.0000000000000000000, 0.0000000000000000000 ) ) ;
#80 = CARTESIAN_POINT ( 'NONE',  ( -1.156599072981593368, 1.733215939130163141, 1.874946360380613353 ) ) ;
#81 = CC_DESIGN_DATE_AND_TIME_ASSIGNMENT ( #292, #232, ( #34 ) ) ;
#82 = APPLICATION_CONTEXT ( 'configuration controlled 3d designs of mechanical parts and assemblies' ) ;
#83 = ORIENTED_EDGE ( 'NONE', *, *, #164, .F. ) ;
#84 = CIRCLE ( 'NONE', #215, 1.500000000000000000 ) ;
#85 = CARTESIAN_POINT ( 'NONE',  ( 0.2934009270184064211, 0.2832159391301629081, 3.111766055888028681 ) ) ;
#86 = APPROVAL_STATUS ( 'not_yet_approved' ) ;
#87 = CARTESIAN_POINT ( 'NONE',  ( 0.0000000000000000000, 0.0000000000000000000, 0.0000000000000000000 ) ) ;
#88 = EDGE_CURVE ( 'NONE', #315, #184, #107, .T. ) ;
#89 = ORIENTED_EDGE ( 'NONE', *, *, #302, .T. ) ;
#90 = ORGANIZATION ( 'UNSPECIFIED', 'UNSPECIFIED', '' ) ;
#91 = AXIS2_PLACEMENT_3D ( 'NONE', #20, #154, #318 ) ;
#92 = FACE_OUTER_BOUND ( 'NONE', #105, .T. ) ;
#93 = ORIENTED_EDGE ( 'NONE', *, *, #2, .F. ) ;
#94 = CC_DESIGN_APPROVAL ( #67, ( #57 ) ) ;
#95 = DATE_AND_TIME ( #144, #52 ) ;
#96 = EDGE_CURVE ( 'NONE', #133, #209, #178, .T. ) ;
#97 = CARTESIAN_POINT ( 'NONE',  ( -1.156599072981593368, 1.733215939130162919, 3.111766055888028681 ) ) ;
#98 = DIRECTION ( 'NONE',  ( 1.000000000000000000, 0.0000000000000000000, 0.0000000000000000000 ) ) ;
#99 = VECTOR ( 'NONE', #73, 1000.000000000000000 ) ;
#100 = CARTESIAN_POINT ( 'NONE',  ( -1.206599072981593412, 1.733215939130163141, 1.924946360380614507 ) ) ;
#101 = ORIENTED_EDGE ( 'NONE', *, *, #242, .F. ) ;
#102 = EDGE_CURVE ( 'NONE', #74, #260, #103, .T. ) ;
#103 = LINE ( 'NONE', #289, #303 ) ;
#104 = DIRECTION ( 'NONE',  ( 1.000000000000000000, 0.0000000000000000000, 0.0000000000000000000 ) ) ;
#105 = EDGE_LOOP ( 'NONE', ( #116, #93, #83, #190, #5 ) ) ;
#106 = CARTESIAN_POINT ( 'NONE',  ( 0.2934009270184065876, 1.733215939130162919, 1.924946360380614507 ) ) ;
#107 = LINE ( 'NONE', #311, #99 ) ;
#108 = CARTESIAN_POINT ( 'NONE',  ( 0.2934009270184065876, 1.733215939130162919, 1.924946360380614507 ) ) ;
#109 = ORIENTED_EDGE ( 'NONE', *, *, #53, .F. ) ;
#110 = PERSON_AND_ORGANIZATION ( #66, #90 ) ;
#111 = CIRCLE ( 'NONE', #277, 1.499999999999999778 ) ;
#112 = AXIS2_PLACEMENT_3D ( 'NONE', #106, #44, #224 ) ;
#113 = EDGE_CURVE ( 'NONE', #317, #49, #7, .T. ) ;
#114 = ORIENTED_EDGE ( 'NONE', *, *, #234, .T. ) ;
#115 = CC_DESIGN_PERSON_AND_ORGANIZATION_ASSIGNMENT ( #3, #320, ( #34 ) ) ;
#116 = ORIENTED_EDGE ( 'NONE', *, *, #186, .F. ) ;
#117 = EDGE_CURVE ( 'NONE', #65, #260, #78, .T. ) ;
#118 = ORIENTED_EDGE ( 'NONE', *, *, #96, .T. ) ;
#119 = DIRECTION ( 'NONE',  ( 1.000000000000000000, 0.0000000000000000000, 0.0000000000000000000 ) ) ;
#120 = ORIENTED_EDGE ( 'NONE', *, *, #164, .T. ) ;
#121 = APPROVAL_PERSON_ORGANIZATION ( #110, #67, #161 ) ;
#122 = CARTESIAN_POINT ( 'NONE',  ( 0.2934009270184065876, 1.733215939130162919, 1.874946360380613353 ) ) ;
#123 = CARTESIAN_POINT ( 'NONE',  ( 0.2934009270184065876, 1.733215939130162919, 3.061766055888028415 ) ) ;
#124 = CARTESIAN_POINT ( 'NONE',  ( 0.2934009270184065876, 1.733215939130163141, 3.374946360380613353 ) ) ;
#125 = CC_DESIGN_SECURITY_CLASSIFICATION ( #57, ( #266 ) ) ;
#126 = CARTESIAN_POINT ( 'NONE',  ( 1.793400927018406366, 1.733215939130163141, 3.061766055888028415 ) ) ;
#127 = FACE_OUTER_BOUND ( 'NONE', #43, .T. ) ;
#128 = ORIENTED_EDGE ( 'NONE', *, *, #117, .T. ) ;
#129 = AXIS2_PLACEMENT_3D ( 'NONE', #166, #243, #220 ) ;
#130 = CIRCLE ( 'NONE', #263, 1.449999999999999956 ) ;
#131 =( NAMED_UNIT ( * ) SI_UNIT ( $, .STERADIAN. ) SOLID_ANGLE_UNIT ( ) );
#132 = ADVANCED_FACE ( 'NONE', ( #19 ), #238, .T. ) ;
#133 = VERTEX_POINT ( 'NONE', #80 ) ;
#134 = MECHANICAL_CONTEXT ( 'NONE', #208, 'mechanical' ) ;
#135 = APPROVAL_DATE_TIME ( #95, #191 ) ;
#136 = APPLICATION_PROTOCOL_DEFINITION ( 'international standard', 'config_control_design', 1994, #82 ) ;
#137 = PERSON_AND_ORGANIZATION_ROLE ( 'classification_officer' ) ;
#138 = AXIS2_PLACEMENT_3D ( 'NONE', #149, #172, #244 ) ;
#139 = VERTEX_POINT ( 'NONE', #124 ) ;
#140 = APPROVAL_PERSON_ORGANIZATION ( #200, #191, #158 ) ;
#141 = EDGE_LOOP ( 'NONE', ( #39, #194, #206, #298 ) ) ;
#142 = PERSON_AND_ORGANIZATION ( #66, #90 ) ;
#143 = PERSON_AND_ORGANIZATION ( #66, #90 ) ;
#144 = CALENDAR_DATE ( 2019, 24, 10 ) ;
#145 = DIRECTION ( 'NONE',  ( 0.0000000000000000000, 0.0000000000000000000, -1.000000000000000000 ) ) ;
#146 = DIRECTION ( 'NONE',  ( -1.182479344688504375E-16, -1.000000000000000000, 0.0000000000000000000 ) ) ;
#147 = ORIENTED_EDGE ( 'NONE', *, *, #102, .F. ) ;
#148 = LINE ( 'NONE', #126, #61 ) ;
#149 = CARTESIAN_POINT ( 'NONE',  ( 0.2934009270184065876, 1.733215939130162919, -0.7510536396193869813 ) ) ;
#150 = AXIS2_PLACEMENT_3D ( 'NONE', #304, #15, #72 ) ;
#151 = CIRCLE ( 'NONE', #167, 4.126000000000000334 ) ;
#152 = DIRECTION ( 'NONE',  ( -1.000000000000000000, 0.0000000000000000000, 0.0000000000000000000 ) ) ;
#153 = APPROVAL_PERSON_ORGANIZATION ( #226, #235, #28 ) ;
#154 = DIRECTION ( 'NONE',  ( -1.000000000000000000, 0.0000000000000000000, 0.0000000000000000000 ) ) ;
#155 = PLANE ( 'NONE',  #41 ) ;
#156 = CARTESIAN_POINT ( 'NONE',  ( 0.2934009270184065876, 1.733215939130162919, 1.924946360380614507 ) ) ;
#157 = ORIENTED_EDGE ( 'NONE', *, *, #302, .F. ) ;
#158 = APPROVAL_ROLE ( '' ) ;
#159 = PERSON_AND_ORGANIZATION_ROLE ( 'creator' ) ;
#160 = DATE_TIME_ROLE ( 'classification_date' ) ;
#161 = APPROVAL_ROLE ( '' ) ;
#162 = CC_DESIGN_APPROVAL ( #235, ( #266 ) ) ;
#163 = LOCAL_TIME ( 10, 17, 31.00000000000000000, #210 ) ;
#164 = EDGE_CURVE ( 'NONE', #74, #307, #130, .T. ) ;
#165 = UNCERTAINTY_MEASURE_WITH_UNIT (LENGTH_MEASURE( 1.000000000000000082E-05 ), #30, 'distance_accuracy_value', 'NONE');
#166 = CARTESIAN_POINT ( 'NONE',  ( 0.2934009270184065876, 1.733215939130162919, 1.874946360380613353 ) ) ;
#167 = AXIS2_PLACEMENT_3D ( 'NONE', #71, #288, #146 ) ;
#168 = PRODUCT ( 'TTN162797-E0W', 'TTN162797-E0W', '', ( #134 ) ) ;
#169 =( GEOMETRIC_REPRESENTATION_CONTEXT ( 3 ) GLOBAL_UNCERTAINTY_ASSIGNED_CONTEXT ( ( #165 ) ) GLOBAL_UNIT_ASSIGNED_CONTEXT ( ( #30, #32, #131 ) ) REPRESENTATION_CONTEXT ( 'NONE', 'WORKASPACE' ) );
#170 = DIRECTION ( 'NONE',  ( 1.000000000000000000, 0.0000000000000000000, 0.0000000000000000000 ) ) ;
#171 = PERSON_AND_ORGANIZATION ( #66, #90 ) ;
#172 = DIRECTION ( 'NONE',  ( 1.000000000000000000, 0.0000000000000000000, 0.0000000000000000000 ) ) ;
#173 = VECTOR ( 'NONE', #12, 1000.000000000000114 ) ;
#174 = DIRECTION ( 'NONE',  ( -0.0000000000000000000, -0.0000000000000000000, 1.000000000000000000 ) ) ;
#175 = DIRECTION ( 'NONE',  ( -0.0000000000000000000, -0.0000000000000000000, 1.000000000000000000 ) ) ;
#176 = MANIFOLD_SOLID_BREP ( 'TTN162769-1-solid1', #25 ) ;
#177 = ORIENTED_EDGE ( 'NONE', *, *, #117, .F. ) ;
#178 = CIRCLE ( 'NONE', #217, 1.449999999999999956 ) ;
#179 = DIRECTION ( 'NONE',  ( 1.000000000000000000, 0.0000000000000000000, 0.0000000000000000000 ) ) ;
#180 = AXIS2_PLACEMENT_3D ( 'NONE', #223, #270, #245 ) ;
#181 = ORIENTED_EDGE ( 'NONE', *, *, #312, .F. ) ;
#182 = FACE_OUTER_BOUND ( 'NONE', #60, .T. ) ;
#183 = PERSON_AND_ORGANIZATION_ROLE ( 'design_owner' ) ;
#184 = VERTEX_POINT ( 'NONE', #16 ) ;
#185 = DIRECTION ( 'NONE',  ( -0.0000000000000000000, -0.0000000000000000000, 1.000000000000000000 ) ) ;
#186 = EDGE_CURVE ( 'NONE', #317, #184, #148, .T. ) ;
#187 = LINE ( 'NONE', #13, #173 ) ;
#188 = ORIENTED_EDGE ( 'NONE', *, *, #63, .T. ) ;
#189 = PRODUCT_RELATED_PRODUCT_CATEGORY ( 'detail', '', ( #168 ) ) ;
#190 = ORIENTED_EDGE ( 'NONE', *, *, #102, .T. ) ;
#191 = APPROVAL ( #86, 'UNSPECIFIED' ) ;
#192 = ORIENTED_EDGE ( 'NONE', *, *, #312, .T. ) ;
#193 = CALENDAR_DATE ( 2019, 24, 10 ) ;
#194 = ORIENTED_EDGE ( 'NONE', *, *, #2, .T. ) ;
#195 = AXIS2_PLACEMENT_3D ( 'NONE', #249, #275, #152 ) ;
#196 = CARTESIAN_POINT ( 'NONE',  ( -1.206599072981593412, 1.733215939130163141, 3.374946360380613353 ) ) ;
#197 = EDGE_CURVE ( 'NONE', #184, #260, #111, .T. ) ;
#198 = ORIENTED_EDGE ( 'NONE', *, *, #113, .F. ) ;
#199 = COORDINATED_UNIVERSAL_TIME_OFFSET ( 5, 0, .BEHIND. ) ;
#200 = PERSON_AND_ORGANIZATION ( #66, #90 ) ;
#201 = DIRECTION ( 'NONE',  ( -0.0000000000000000000, -0.0000000000000000000, 1.000000000000000000 ) ) ;
#202 = ADVANCED_FACE ( 'NONE', ( #182 ), #155, .F. ) ;
#203 = CC_DESIGN_PERSON_AND_ORGANIZATION_ASSIGNMENT ( #10, #183, ( #168 ) ) ;
#204 = CARTESIAN_POINT ( 'NONE',  ( 1.793400927018406588, 1.733215939130162919, 1.924946360380614507 ) ) ;
#205 = APPLICATION_PROTOCOL_DEFINITION ( 'international standard', 'config_control_design', 1994, #208 ) ;
#206 = ORIENTED_EDGE ( 'NONE', *, *, #113, .T. ) ;
#207 = LINE ( 'NONE', #23, #35 ) ;
#208 = APPLICATION_CONTEXT ( 'configuration controlled 3d designs of mechanical parts and assemblies' ) ;
#209 = VERTEX_POINT ( 'NONE', #254 ) ;
#210 = COORDINATED_UNIVERSAL_TIME_OFFSET ( 5, 0, .BEHIND. ) ;
#211 = COORDINATED_UNIVERSAL_TIME_OFFSET ( 5, 0, .BEHIND. ) ;
#212 = AXIS2_PLACEMENT_3D ( 'NONE', #123, #239, #119 ) ;
#213 = PRODUCT_DEFINITION_SHAPE ( 'NONE', 'NONE',  #34 ) ;
#214 = CIRCLE ( 'NONE', #282, 1.449999999999999956 ) ;
#215 = AXIS2_PLACEMENT_3D ( 'NONE', #279, #201, #104 ) ;
#216 = ORIENTED_EDGE ( 'NONE', *, *, #6, .F. ) ;
#217 = AXIS2_PLACEMENT_3D ( 'NONE', #122, #145, #271 ) ;
#218 = DIRECTION ( 'NONE',  ( -0.0000000000000000000, -0.0000000000000000000, 1.000000000000000000 ) ) ;
#219 = CC_DESIGN_PERSON_AND_ORGANIZATION_ASSIGNMENT ( #142, #159, ( #266 ) ) ;
#220 = DIRECTION ( 'NONE',  ( 1.000000000000000000, 0.0000000000000000000, 0.0000000000000000000 ) ) ;
#221 = ORIENTED_EDGE ( 'NONE', *, *, #242, .T. ) ;
#222 = CONICAL_SURFACE ( 'NONE', #112, 1.500000000000000000, 0.7853981633974375098 ) ;
#223 = CARTESIAN_POINT ( 'NONE',  ( 0.2934009270184065876, 1.733215939130162919, -0.7510536396193869813 ) ) ;
#224 = DIRECTION ( 'NONE',  ( 1.000000000000000000, 0.0000000000000000000, 0.0000000000000000000 ) ) ;
#225 = DIRECTION ( 'NONE',  ( 0.0000000000000000000, -0.0000000000000000000, 1.000000000000000000 ) ) ;
#226 = PERSON_AND_ORGANIZATION ( #66, #90 ) ;
#227 = DIRECTION ( 'NONE',  ( 0.7071067811865474617, 8.659560562354932858E-17, -0.7071067811865474617 ) ) ;
#228 = AXIS2_PLACEMENT_3D ( 'NONE', #69, #308, #170 ) ;
#229 = ORIENTED_EDGE ( 'NONE', *, *, #234, .F. ) ;
#230 = DIRECTION ( 'NONE',  ( 0.0000000000000000000, 0.0000000000000000000, 1.000000000000000000 ) ) ;
#231 = ADVANCED_FACE ( 'NONE', ( #33 ), #4, .T. ) ;
#232 = DATE_TIME_ROLE ( 'creation_date' ) ;
#233 = ADVANCED_FACE ( 'NONE', ( #92 ), #262, .T. ) ;
#234 = EDGE_CURVE ( 'NONE', #49, #74, #214, .T. ) ;
#235 = APPROVAL ( #257, 'UNSPECIFIED' ) ;
#236 = ORIENTED_EDGE ( 'NONE', *, *, #96, .F. ) ;
#237 = LOCAL_TIME ( 10, 17, 31.00000000000000000, #199 ) ;
#238 = CYLINDRICAL_SURFACE ( 'NONE', #287, 1.500000000000000000 ) ;
#239 = DIRECTION ( 'NONE',  ( -0.0000000000000000000, -0.0000000000000000000, 1.000000000000000000 ) ) ;
#240 = CIRCLE ( 'NONE', #212, 1.499999999999999778 ) ;
#241 = ORIENTED_EDGE ( 'NONE', *, *, #6, .T. ) ;
#242 = EDGE_CURVE ( 'NONE', #65, #315, #84, .T. ) ;
#243 = DIRECTION ( 'NONE',  ( 0.0000000000000000000, 0.0000000000000000000, -1.000000000000000000 ) ) ;
#244 = DIRECTION ( 'NONE',  ( 0.0000000000000000000, 0.0000000000000000000, -1.000000000000000000 ) ) ;
#245 = DIRECTION ( 'NONE',  ( 0.0000000000000000000, 1.000000000000000000, 0.0000000000000000000 ) ) ;
#246 = DIRECTION ( 'NONE',  ( -0.7071067811865474617, 0.0000000000000000000, -0.7071067811865474617 ) ) ;
#247 = ORIENTED_EDGE ( 'NONE', *, *, #21, .F. ) ;
#248 = CALENDAR_DATE ( 2019, 24, 10 ) ;
#249 = CARTESIAN_POINT ( 'NONE',  ( 0.2934009270184065876, 1.733215939130162919, 3.061766055888028415 ) ) ;
#250 = AXIS2_PLACEMENT_3D ( 'NONE', #75, #314, #98 ) ;
#251 = CARTESIAN_POINT ( 'NONE',  ( 0.2934009270184065876, 1.733215939130162919, 1.874946360380613353 ) ) ;
#252 = CIRCLE ( 'NONE', #138, 4.126000000000000334 ) ;
#253 = EDGE_LOOP ( 'NONE', ( #120, #64, #247, #114 ) ) ;
#254 = CARTESIAN_POINT ( 'NONE',  ( 1.743400927018406543, 1.733215939130162919, 1.874946360380613353 ) ) ;
#255 = FACE_OUTER_BOUND ( 'NONE', #306, .T. ) ;
#256 = DIRECTION ( 'NONE',  ( 1.000000000000000000, 0.0000000000000000000, 0.0000000000000000000 ) ) ;
#257 = APPROVAL_STATUS ( 'not_yet_approved' ) ;
#258 = ADVANCED_FACE ( 'NONE', ( #26 ), #296, .T. ) ;
#259 = FACE_OUTER_BOUND ( 'NONE', #141, .T. ) ;
#260 = VERTEX_POINT ( 'NONE', #319 ) ;
#261 = LOCAL_TIME ( 10, 17, 31.00000000000000000, #68 ) ;
#262 = CONICAL_SURFACE ( 'NONE', #195, 1.499999999999999778, 0.7853981633974482790 ) ;
#263 = AXIS2_PLACEMENT_3D ( 'NONE', #272, #47, #79 ) ;
#264 = EDGE_LOOP ( 'NONE', ( #177, #221, #37, #109 ) ) ;
#265 = APPROVAL_DATE_TIME ( #40, #235 ) ;
#266 = PRODUCT_DEFINITION_FORMATION_WITH_SPECIFIED_SOURCE ( 'ANY', '', #168, .NOT_KNOWN. ) ;
#267 = CYLINDRICAL_SURFACE ( 'NONE', #250, 1.500000000000000000 ) ;
#268 = LOCAL_TIME ( 10, 17, 31.00000000000000000, #301 ) ;
#269 = SHAPE_DEFINITION_REPRESENTATION ( #213, #280 ) ;
#270 = DIRECTION ( 'NONE',  ( -1.000000000000000000, 0.0000000000000000000, 0.0000000000000000000 ) ) ;
#271 = DIRECTION ( 'NONE',  ( 1.000000000000000000, 0.0000000000000000000, 0.0000000000000000000 ) ) ;
#272 = CARTESIAN_POINT ( 'NONE',  ( 0.2934009270184065876, 1.733215939130162919, 3.111766055888028681 ) ) ;
#273 = CIRCLE ( 'NONE', #129, 1.449999999999999956 ) ;
#274 = CIRCLE ( 'NONE', #309, 1.500000000000000000 ) ;
#275 = DIRECTION ( 'NONE',  ( 0.0000000000000000000, 0.0000000000000000000, -1.000000000000000000 ) ) ;
#276 = DIRECTION ( 'NONE',  ( 1.000000000000000000, 0.0000000000000000000, 0.0000000000000000000 ) ) ;
#277 = AXIS2_PLACEMENT_3D ( 'NONE', #24, #293, #276 ) ;
#278 = ADVANCED_FACE ( 'NONE', ( #255 ), #222, .T. ) ;
#279 = CARTESIAN_POINT ( 'NONE',  ( 0.2934009270184065876, 1.733215939130162919, 1.924946360380614507 ) ) ;
#280 = ADVANCED_BREP_SHAPE_REPRESENTATION ( 'TTN162797-E0W', ( #176, #316 ), #169 ) ;
#281 = DIRECTION ( 'NONE',  ( 1.000000000000000000, 0.0000000000000000000, 0.0000000000000000000 ) ) ;
#282 = AXIS2_PLACEMENT_3D ( 'NONE', #294, #297, #179 ) ;
#283 = CARTESIAN_POINT ( 'NONE',  ( 1.743400927018406543, 1.733215939130163141, 3.111766055888028681 ) ) ;
#284 = DESIGN_CONTEXT ( 'detailed design', #82, 'design' ) ;
#285 = AXIS2_PLACEMENT_3D ( 'NONE', #156, #46, #76 ) ;
#286 = CC_DESIGN_APPROVAL ( #191, ( #34 ) ) ;
#287 = AXIS2_PLACEMENT_3D ( 'NONE', #310, #174, #38 ) ;
#288 = DIRECTION ( 'NONE',  ( -1.000000000000000000, 1.224646799147353207E-16, 0.0000000000000000000 ) ) ;
#289 = CARTESIAN_POINT ( 'NONE',  ( -1.206599072981593190, 1.733215939130162919, 3.061766055888028415 ) ) ;
#290 = CARTESIAN_POINT ( 'NONE',  ( 0.2934009270184065876, 1.733215939130162919, 3.111766055888028681 ) ) ;
#291 = CC_DESIGN_PERSON_AND_ORGANIZATION_ASSIGNMENT ( #143, #54, ( #266 ) ) ;
#292 = DATE_AND_TIME ( #193, #261 ) ;
#293 = DIRECTION ( 'NONE',  ( -0.0000000000000000000, -0.0000000000000000000, 1.000000000000000000 ) ) ;
#294 = CARTESIAN_POINT ( 'NONE',  ( 0.2934009270184065876, 1.733215939130162919, 3.111766055888028681 ) ) ;
#295 = DIRECTION ( 'NONE',  ( 0.7071067811865398012, 0.0000000000000000000, 0.7071067811865551223 ) ) ;
#296 = SPHERICAL_SURFACE ( 'NONE', #91, 4.126000000000000334 ) ;
#297 = DIRECTION ( 'NONE',  ( -0.0000000000000000000, -0.0000000000000000000, 1.000000000000000000 ) ) ;
#298 = ORIENTED_EDGE ( 'NONE', *, *, #21, .T. ) ;
#299 = CC_DESIGN_DATE_AND_TIME_ASSIGNMENT ( #305, #160, ( #57 ) ) ;
#300 = CONICAL_SURFACE ( 'NONE', #150, 1.499999999999999778, 0.7853981633974482790 ) ;
#301 = COORDINATED_UNIVERSAL_TIME_OFFSET ( 5, 0, .BEHIND. ) ;
#302 = EDGE_CURVE ( 'NONE', #209, #315, #207, .T. ) ;
#303 = VECTOR ( 'NONE', #246, 1000.000000000000114 ) ;
#304 = CARTESIAN_POINT ( 'NONE',  ( 0.2934009270184065876, 1.733215939130162919, 3.061766055888028415 ) ) ;
#305 = DATE_AND_TIME ( #248, #237 ) ;
#306 = EDGE_LOOP ( 'NONE', ( #236, #188, #181, #157 ) ) ;
#307 = VERTEX_POINT ( 'NONE', #85 ) ;
#308 = DIRECTION ( 'NONE',  ( -0.0000000000000000000, -0.0000000000000000000, 1.000000000000000000 ) ) ;
#309 = AXIS2_PLACEMENT_3D ( 'NONE', #108, #185, #256 ) ;
#310 = CARTESIAN_POINT ( 'NONE',  ( 0.2934009270184065876, 1.733215939130162919, 3.374946360380613353 ) ) ;
#311 = CARTESIAN_POINT ( 'NONE',  ( 1.793400927018406588, 1.733215939130162919, 3.374946360380613353 ) ) ;
#312 = EDGE_CURVE ( 'NONE', #315, #65, #274, .T. ) ;
#313 = EDGE_LOOP ( 'NONE', ( #198, #62, #31, #147, #229 ) ) ;
#314 = DIRECTION ( 'NONE',  ( -0.0000000000000000000, -0.0000000000000000000, 1.000000000000000000 ) ) ;
#315 = VERTEX_POINT ( 'NONE', #204 ) ;
#316 = AXIS2_PLACEMENT_3D ( 'NONE', #87, #230, #281 ) ;
#317 = VERTEX_POINT ( 'NONE', #283 ) ;
#318 = DIRECTION ( 'NONE',  ( 0.0000000000000000000, 1.000000000000000000, 0.0000000000000000000 ) ) ;
#319 = CARTESIAN_POINT ( 'NONE',  ( -1.206599072981593190, 1.733215939130163141, 3.061766055888028415 ) ) ;
#320 = PERSON_AND_ORGANIZATION_ROLE ( 'creator' ) ;
#321 = EDGE_LOOP ( 'NONE', ( #56, #216, #89, #101 ) ) ;
ENDSEC;
END-ISO-10303-21;
