ISO-10303-21;
HEADER;
FILE_DESCRIPTION (( 'STEP AP203' ),
    '1' );
FILE_NAME ('50mm BEAMSPLITTER CUBE TS_48886.step',
    '2021-09-20T13:53:16',
    ( '' ),
    ( '' ),
    'SwSTEP 2.0',
    'SolidWorks 2018',
    '' );
FILE_SCHEMA (( 'CONFIG_CONTROL_DESIGN' ));
ENDSEC;

DATA;
#1 = CARTESIAN_POINT ( 'NONE',  ( 0.000000000000000000, 0.000000000000000000, 0.000000000000000000 ) ) ;
#2 = PRODUCT_DEFINITION_FORMATION_WITH_SPECIFIED_SOURCE ( 'ANY', '', #202, .NOT_KNOWN. ) ;
#3 = PERSON_AND_ORGANIZATION ( #6, #134 ) ;
#4 = VERTEX_POINT ( 'NONE', #29 ) ;
#5 = DIRECTION ( 'NONE',  ( 1.000000000000000000, 0.000000000000000000, -0.000000000000000000 ) ) ;
#6 = PERSON ( 'UNSPECIFIED', 'UNSPECIFIED', 'UNSPECIFIED', ('UNSPECIFIED'), ('UNSPECIFIED'), ('UNSPECIFIED') ) ;
#7 = APPROVAL_DATE_TIME ( #157, #123 ) ;
#8 = APPLICATION_CONTEXT ( 'configuration controlled 3d designs of mechanical parts and assemblies' ) ;
#9 = VECTOR ( 'NONE', #88, 1000.000000000000000 ) ;
#10 = SECURITY_CLASSIFICATION ( '', '', #81 ) ;
#11 = CLOSED_SHELL ( 'NONE', ( #51, #131, #243, #347, #210 ) ) ;
#12 = APPROVAL_STATUS ( 'not_yet_approved' ) ;
#13 = DIRECTION ( 'NONE',  ( 1.000000000000000000, 0.000000000000000000, 0.000000000000000000 ) ) ;
#14 = MANIFOLD_SOLID_BREP ( 'Boss-Extrude1', #11 ) ;
#15 = COORDINATED_UNIVERSAL_TIME_OFFSET ( 5, 0, .BEHIND. ) ;
#16 = VERTEX_POINT ( 'NONE', #280 ) ;
#17 = CC_DESIGN_PERSON_AND_ORGANIZATION_ASSIGNMENT ( #239, #109, ( #287 ) ) ;
#18 = SHAPE_DEFINITION_REPRESENTATION ( #253, #100 ) ;
#19 = APPROVAL_ROLE ( '' ) ;
#20 = VECTOR ( 'NONE', #142, 999.9999999999998863 ) ;
#21 = EDGE_CURVE ( 'NONE', #16, #302, #238, .T. ) ;
#22 = CARTESIAN_POINT ( 'NONE',  ( 35.35533905932755516, -3.891179526048115645E-15, 25.00000000000000000 ) ) ;
#23 = APPROVAL_ROLE ( '' ) ;
#24 = LOCAL_TIME ( 9, 53, 16.00000000000000000, #148 ) ;
#25 = LOCAL_TIME ( 9, 53, 16.00000000000000000, #169 ) ;
#26 = ORIENTED_EDGE ( 'NONE', *, *, #21, .F. ) ;
#27 = CC_DESIGN_SECURITY_CLASSIFICATION ( #10, ( #287 ) ) ;
#28 = PERSON_AND_ORGANIZATION ( #6, #134 ) ;
#29 = CARTESIAN_POINT ( 'NONE',  ( 1.732185581861186806E-15, 35.35533905932718568, 25.00000000000000000 ) ) ;
#30 = VECTOR ( 'NONE', #310, 1000.000000000000000 ) ;
#31 = AXIS2_PLACEMENT_3D ( 'NONE', #66, #67, #121 ) ;
#32 = PERSON_AND_ORGANIZATION ( #37, #230 ) ;
#33 = PERSON_AND_ORGANIZATION ( #6, #134 ) ;
#34 = PLANE ( 'NONE',  #260 ) ;
#35 = LINE ( 'NONE', #254, #20 ) ;
#36 = CC_DESIGN_DATE_AND_TIME_ASSIGNMENT ( #328, #247, ( #185 ) ) ;
#37 = PERSON ( 'NAUO-PER1', 'UNSPECIFIED', 'UNSPECIFIED', ('UNSPECIFIED'), ('UNSPECIFIED'), ('UNSPECIFIED') ) ;
#38 = CARTESIAN_POINT ( 'NONE',  ( 1.732185581861186806E-15, 35.35533905932718568, 25.00000000000000000 ) ) ;
#39 = SECURITY_CLASSIFICATION ( '', '', #135 ) ;
#40 = VERTEX_POINT ( 'NONE', #358 ) ;
#41 = CARTESIAN_POINT ( 'NONE',  ( -35.35533905932755516, 0.000000000000000000, 25.00000000000000000 ) ) ;
#42 = DIRECTION ( 'NONE',  ( -0.7071067811865511255, 0.7071067811865440200, 0.000000000000000000 ) ) ;
#43 = LOCAL_TIME ( 9, 53, 16.00000000000000000, #235 ) ;
#44 = APPLICATION_PROTOCOL_DEFINITION ( 'international standard', 'config_control_design', 1994, #314 ) ;
#45 = PERSON_AND_ORGANIZATION ( #6, #134 ) ;
#46 = PRODUCT_DEFINITION_SHAPE ( 'NONE', 'NONE',  #361 ) ;
#47 = AXIS2_PLACEMENT_3D ( 'NONE', #181, #152, #211 ) ;
#48 = ORGANIZATION ( 'NAUO-ORG2', 'UNSPECIFIED', 'UNSPECIFIED' ) ;
#49 = SHAPE_DEFINITION_REPRESENTATION ( #68, #98 ) ;
#50 = CC_DESIGN_DATE_AND_TIME_ASSIGNMENT ( #119, #57, ( #10 ) ) ;
#51 = ADVANCED_FACE ( 'NONE', ( #264 ), #193, .F. ) ;
#52 = APPROVAL_STATUS ( 'not_yet_approved' ) ;
#53 = CALENDAR_DATE ( 2021, 20, 9 ) ;
#54 = PERSON_AND_ORGANIZATION_ROLE ( 'classification_officer' ) ;
#55 = CALENDAR_DATE ( 2021, 20, 9 ) ;
#56 = COORDINATED_UNIVERSAL_TIME_OFFSET ( 5, 0, .BEHIND. ) ;
#57 = DATE_TIME_ROLE ( 'classification_date' ) ;
#58 = ORIENTED_EDGE ( 'NONE', *, *, #182, .T. ) ;
#59 = APPROVAL ( #52, 'UNKNOWN' ) ;
#60 = EDGE_CURVE ( 'NONE', #302, #40, #35, .T. ) ;
#61 = LOCAL_TIME ( 9, 53, 16.00000000000000000, #237 ) ;
#62 = DIRECTION ( 'NONE',  ( 0.000000000000000000, 0.000000000000000000, 1.000000000000000000 ) ) ;
#63 = CARTESIAN_POINT ( 'NONE',  ( 0.000000000000000000, 0.000000000000000000, -25.00000000000000000 ) ) ;
#64 = PRODUCT_RELATED_PRODUCT_CATEGORY ( 'detail', '', ( #284 ) ) ;
#65 = DATE_AND_TIME ( #215, #82 ) ;
#66 = CARTESIAN_POINT ( 'NONE',  ( 1.732185581861186806E-15, 35.35533905932718568, 25.00000000000000000 ) ) ;
#67 = DIRECTION ( 'NONE',  ( 0.7071067811865439090, -0.7071067811865512365, 0.000000000000000000 ) ) ;
#68 = PRODUCT_DEFINITION_SHAPE ( 'NONE', 'NONE',  #255 ) ;
#69 =( NAMED_UNIT ( * ) SI_UNIT ( $, .STERADIAN. ) SOLID_ANGLE_UNIT ( ) );
#70 = CC_DESIGN_SECURITY_CLASSIFICATION ( #39, ( #360 ) ) ;
#71 = APPROVAL_PERSON_ORGANIZATION ( #183, #123, #85 ) ;
#72 = DATE_AND_TIME ( #140, #212 ) ;
#73 = SECURITY_CLASSIFICATION_LEVEL ( 'unclassified' ) ;
#74 = PERSON_AND_ORGANIZATION_ROLE ( 'creator' ) ;
#75 = APPROVAL_DATE_TIME ( #225, #161 ) ;
#76 = LINE ( 'NONE', #334, #30 ) ;
#77 = CC_DESIGN_APPROVAL ( #59, ( #39 ) ) ;
#78 = APPROVAL_STATUS ( 'not_yet_approved' ) ;
#79 = EDGE_CURVE ( 'NONE', #159, #302, #356, .T. ) ;
#80 = ORIENTED_EDGE ( 'NONE', *, *, #125, .T. ) ;
#81 = SECURITY_CLASSIFICATION_LEVEL ( 'unclassified' ) ;
#82 = LOCAL_TIME ( 9, 53, 16.00000000000000000, #301 ) ;
#83 = ORIENTED_EDGE ( 'NONE', *, *, #60, .F. ) ;
#84 = CC_DESIGN_PERSON_AND_ORGANIZATION_ASSIGNMENT ( #33, #242, ( #284 ) ) ;
#85 = APPROVAL_ROLE ( '' ) ;
#86 = LOCAL_TIME ( 9, 53, 16.00000000000000000, #306 ) ;
#87 = ORIENTED_EDGE ( 'NONE', *, *, #217, .T. ) ;
#88 = DIRECTION ( 'NONE',  ( -0.000000000000000000, -0.000000000000000000, -1.000000000000000000 ) ) ;
#89 = AXIS2_PLACEMENT_3D ( 'NONE', #359, #114, #222 ) ;
#90 = SHAPE_REPRESENTATION_RELATIONSHIP ( 'NONE' , 'NONE' ,  #100, #348 ) ;
#91 = CC_DESIGN_DATE_AND_TIME_ASSIGNMENT ( #262, #160, ( #39 ) ) ;
#92 = PERSON_AND_ORGANIZATION ( #6, #134 ) ;
#93 = CARTESIAN_POINT ( 'NONE',  ( -35.35533905932755516, 0.000000000000000000, -25.00000000000000000 ) ) ;
#94 = ORIENTED_EDGE ( 'NONE', *, *, #167, .F. ) ;
#95 = MECHANICAL_CONTEXT ( 'NONE', #204, 'mechanical' ) ;
#96 = CARTESIAN_POINT ( 'NONE',  ( 0.000000000000000000, 0.000000000000000000, 0.000000000000000000 ) ) ;
#97 = APPROVAL_ROLE ( '' ) ;
#98 = SHAPE_REPRESENTATION ( '50mm BEAMSPLITTER CUBE TS_48886', ( #171, #281, #141 ), #209 ) ;
#99 =( GEOMETRIC_REPRESENTATION_CONTEXT ( 3 ) GLOBAL_UNCERTAINTY_ASSIGNED_CONTEXT ( ( #289 ) ) GLOBAL_UNIT_ASSIGNED_CONTEXT ( ( #105, #269, #297 ) ) REPRESENTATION_CONTEXT ( 'NONE', 'WORKASPACE' ) );
#100 = SHAPE_REPRESENTATION ( '50x50 Right Angle Prism Master', ( #241 ), #99 ) ;
#101 = PERSON_AND_ORGANIZATION ( #6, #134 ) ;
#102 = ORIENTED_EDGE ( 'NONE', *, *, #60, .T. ) ;
#103 =( NAMED_UNIT ( * ) PLANE_ANGLE_UNIT ( ) SI_UNIT ( $, .RADIAN. ) );
#104 = CC_DESIGN_SECURITY_CLASSIFICATION ( #185, ( #361 ) ) ;
#105 =( LENGTH_UNIT ( ) NAMED_UNIT ( * ) SI_UNIT ( .MILLI., .METRE. ) );
#106 = APPROVAL_DATE_TIME ( #191, #59 ) ;
#107 = PERSON_AND_ORGANIZATION ( #6, #134 ) ;
#108 = VECTOR ( 'NONE', #259, 1000.000000000000000 ) ;
#109 = PERSON_AND_ORGANIZATION_ROLE ( 'design_supplier' ) ;
#110 = CONTEXT_DEPENDENT_SHAPE_REPRESENTATION ( #249, #46 ) ;
#111 = ORIENTED_EDGE ( 'NONE', *, *, #221, .T. ) ;
#112 = APPROVAL ( #276, 'UNSPECIFIED' ) ;
#113 = DESIGN_CONTEXT ( 'detailed design', #8, 'design' ) ;
#114 = DIRECTION ( 'NONE',  ( -0.7071067811865440200, -0.7071067811865511255, 0.000000000000000000 ) ) ;
#115 = CALENDAR_DATE ( 2021, 20, 9 ) ;
#116 = LOCAL_TIME ( 9, 53, 16.00000000000000000, #56 ) ;
#117 = CARTESIAN_POINT ( 'NONE',  ( 1.732185581861186806E-15, 35.35533905932718568, 25.00000000000000000 ) ) ;
#118 = CC_DESIGN_APPROVAL ( #338, ( #255 ) ) ;
#119 = DATE_AND_TIME ( #272, #172 ) ;
#120 = APPROVAL_PERSON_ORGANIZATION ( #184, #248, #126 ) ;
#121 = DIRECTION ( 'NONE',  ( 0.7071067811865512365, 0.7071067811865439090, 0.000000000000000000 ) ) ;
#122 = CARTESIAN_POINT ( 'NONE',  ( 0.000000000000000000, 0.000000000000000000, 0.000000000000000000 ) ) ;
#123 = APPROVAL ( #189, 'UNKNOWN' ) ;
#124 = APPROVAL_PERSON_ORGANIZATION ( #245, #161, #97 ) ;
#125 = EDGE_CURVE ( 'NONE', #40, #159, #251, .T. ) ;
#126 = APPROVAL_ROLE ( '' ) ;
#127 = APPROVAL_DATE_TIME ( #65, #338 ) ;
#128 = VECTOR ( 'NONE', #199, 1000.000000000000000 ) ;
#129 = PRODUCT_DEFINITION_SHAPE ( 'NONE', 'NONE',  #360 ) ;
#130 = CC_DESIGN_APPROVAL ( #112, ( #10 ) ) ;
#131 = ADVANCED_FACE ( 'NONE', ( #295 ), #309, .F. ) ;
#132 = ITEM_DEFINED_TRANSFORMATION ( 'NONE', 'NONE', #141,  #241 ) ;
#133 = DIRECTION ( 'NONE',  ( -1.000000000000000222, 0.000000000000000000, 5.551115123125782702E-17 ) ) ;
#134 = ORGANIZATION ( 'UNSPECIFIED', 'UNSPECIFIED', '' ) ;
#135 = SECURITY_CLASSIFICATION_LEVEL ( 'unclassified' ) ;
#136 = PRODUCT_DEFINITION ( 'UNKNOWN', '', #287, #113 ) ;
#137 = ORIENTED_EDGE ( 'NONE', *, *, #221, .F. ) ;
#138 = PERSON_AND_ORGANIZATION_ROLE ( 'creator' ) ;
#139 = COORDINATED_UNIVERSAL_TIME_OFFSET ( 5, 0, .BEHIND. ) ;
#140 = CALENDAR_DATE ( 2021, 20, 9 ) ;
#141 = AXIS2_PLACEMENT_3D ( 'NONE', #234, #232, #133 ) ;
#142 = DIRECTION ( 'NONE',  ( -0.7071067811865511255, 0.7071067811865440200, 0.000000000000000000 ) ) ;
#143 = LOCAL_TIME ( 9, 53, 16.00000000000000000, #15 ) ;
#144 = FACE_OUTER_BOUND ( 'NONE', #304, .T. ) ;
#145 = PLANE ( 'NONE',  #271 ) ;
#146 = CC_DESIGN_APPROVAL ( #161, ( #2 ) ) ;
#147 = CARTESIAN_POINT ( 'NONE',  ( 35.35533905932755516, -3.891179526048115645E-15, -25.00000000000000000 ) ) ;
#148 = COORDINATED_UNIVERSAL_TIME_OFFSET ( 5, 0, .BEHIND. ) ;
#149 = EDGE_LOOP ( 'NONE', ( #80, #286, #321, #87 ) ) ;
#150 = EDGE_CURVE ( 'NONE', #4, #201, #246, .T. ) ;
#151 = APPROVAL_STATUS ( 'not_yet_approved' ) ;
#152 = DIRECTION ( 'NONE',  ( 0.000000000000000000, 0.000000000000000000, 1.000000000000000000 ) ) ;
#153 = APPROVAL_ROLE ( '' ) ;
#154 = PERSON_AND_ORGANIZATION ( #6, #134 ) ;
#155 = ORIENTED_EDGE ( 'NONE', *, *, #79, .T. ) ;
#156 = CC_DESIGN_APPROVAL ( #233, ( #136 ) ) ;
#157 = DATE_AND_TIME ( #55, #315 ) ;
#158 = LINE ( 'NONE', #331, #170 ) ;
#159 = VERTEX_POINT ( 'NONE', #93 ) ;
#160 = DATE_TIME_ROLE ( 'classification_date' ) ;
#161 = APPROVAL ( #265, 'UNSPECIFIED' ) ;
#162 = CALENDAR_DATE ( 2021, 20, 9 ) ;
#163 = PERSON_AND_ORGANIZATION ( #6, #134 ) ;
#164 = VECTOR ( 'NONE', #332, 1000.000000000000000 ) ;
#165 = CC_DESIGN_PERSON_AND_ORGANIZATION_ASSIGNMENT ( #32, #299, ( #39 ) ) ;
#166 = CALENDAR_DATE ( 2021, 20, 9 ) ;
#167 = EDGE_CURVE ( 'NONE', #201, #16, #158, .T. ) ;
#168 = APPROVAL_PERSON_ORGANIZATION ( #101, #112, #325 ) ;
#169 = COORDINATED_UNIVERSAL_TIME_OFFSET ( 5, 0, .BEHIND. ) ;
#170 = VECTOR ( 'NONE', #288, 1000.000000000000000 ) ;
#171 = AXIS2_PLACEMENT_3D ( 'NONE', #1, #323, #13 ) ;
#172 = LOCAL_TIME ( 9, 53, 16.00000000000000000, #267 ) ;
#173 = DIRECTION ( 'NONE',  ( -1.000000000000000000, 5.502958859365729424E-17, 0.000000000000000000 ) ) ;
#174 = FACE_OUTER_BOUND ( 'NONE', #329, .T. ) ;
#175 = ORIENTED_EDGE ( 'NONE', *, *, #21, .T. ) ;
#176 = APPLICATION_PROTOCOL_DEFINITION ( 'international standard', 'config_control_design', 1994, #293 ) ;
#177 = PERSON_AND_ORGANIZATION_ROLE ( 'creator' ) ;
#178 = PERSON_AND_ORGANIZATION_ROLE ( 'design_owner' ) ;
#179 = CALENDAR_DATE ( 2021, 20, 9 ) ;
#180 = EDGE_LOOP ( 'NONE', ( #155, #26, #94, #58 ) ) ;
#181 = CARTESIAN_POINT ( 'NONE',  ( 0.000000000000000000, 0.000000000000000000, 0.000000000000000000 ) ) ;
#182 = EDGE_CURVE ( 'NONE', #201, #159, #76, .T. ) ;
#183 = PERSON_AND_ORGANIZATION ( #228, #48 ) ;
#184 = PERSON_AND_ORGANIZATION ( #6, #134 ) ;
#185 = SECURITY_CLASSIFICATION ( '', '', #213 ) ;
#186 = PERSON_AND_ORGANIZATION_ROLE ( 'creator' ) ;
#187 = ITEM_DEFINED_TRANSFORMATION ( 'NONE', 'NONE', #281,  #241 ) ;
#188 = DATE_AND_TIME ( #268, #206 ) ;
#189 = APPROVAL_STATUS ( 'not_yet_approved' ) ;
#190 = CC_DESIGN_PERSON_AND_ORGANIZATION_ASSIGNMENT ( #326, #343, ( #327 ) ) ;
#191 = DATE_AND_TIME ( #179, #86 ) ;
#192 = CALENDAR_DATE ( 2021, 20, 9 ) ;
#193 = PLANE ( 'NONE',  #89 ) ;
#194 = CARTESIAN_POINT ( 'NONE',  ( 35.35533905932755516, -3.891179526048115645E-15, 25.00000000000000000 ) ) ;
#195 = COORDINATED_UNIVERSAL_TIME_OFFSET ( 5, 0, .BEHIND. ) ;
#196 = CARTESIAN_POINT ( 'NONE',  ( -35.35533905932755516, 0.000000000000000000, -25.00000000000000000 ) ) ;
#197 = DIRECTION ( 'NONE',  ( 5.502958859365729424E-17, 1.000000000000000000, -0.000000000000000000 ) ) ;
#198 = CC_DESIGN_PERSON_AND_ORGANIZATION_ASSIGNMENT ( #154, #177, ( #2 ) ) ;
#199 = DIRECTION ( 'NONE',  ( -0.000000000000000000, -0.000000000000000000, -1.000000000000000000 ) ) ;
#200 = APPROVAL_DATE_TIME ( #278, #248 ) ;
#201 = VERTEX_POINT ( 'NONE', #41 ) ;
#202 = PRODUCT ( '50mm BEAMSPLITTER CUBE TS_48886', '50mm BEAMSPLITTER CUBE TS_48886', '', ( #95 ) ) ;
#203 = APPROVAL ( #353, 'UNSPECIFIED' ) ;
#204 = APPLICATION_CONTEXT ( 'configuration controlled 3d designs of mechanical parts and assemblies' ) ;
#205 = DIRECTION ( 'NONE',  ( 1.000000000000000000, 0.000000000000000000, 0.000000000000000000 ) ) ;
#206 = LOCAL_TIME ( 9, 53, 16.00000000000000000, #195 ) ;
#207 = CALENDAR_DATE ( 2021, 20, 9 ) ;
#208 = VECTOR ( 'NONE', #42, 999.9999999999998863 ) ;
#209 =( GEOMETRIC_REPRESENTATION_CONTEXT ( 3 ) GLOBAL_UNCERTAINTY_ASSIGNED_CONTEXT ( ( #270 ) ) GLOBAL_UNIT_ASSIGNED_CONTEXT ( ( #342, #103, #69 ) ) REPRESENTATION_CONTEXT ( 'NONE', 'WORKASPACE' ) );
#210 = ADVANCED_FACE ( 'NONE', ( #174 ), #261, .F. ) ;
#211 = DIRECTION ( 'NONE',  ( 1.000000000000000000, 0.000000000000000000, 0.000000000000000000 ) ) ;
#212 = LOCAL_TIME ( 9, 53, 16.00000000000000000, #250 ) ;
#213 = SECURITY_CLASSIFICATION_LEVEL ( 'unclassified' ) ;
#214 = PRODUCT_RELATED_PRODUCT_CATEGORY ( 'detail', '', ( #202 ) ) ;
#215 = CALENDAR_DATE ( 2021, 20, 9 ) ;
#216 = EDGE_LOOP ( 'NONE', ( #102, #318, #137, #175 ) ) ;
#217 = EDGE_CURVE ( 'NONE', #4, #40, #337, .T. ) ;
#218 = PERSON_AND_ORGANIZATION_ROLE ( 'classification_officer' ) ;
#219 = DESIGN_CONTEXT ( 'detailed design', #314, 'design' ) ;
#220 = CC_DESIGN_APPROVAL ( #248, ( #327 ) ) ;
#221 = EDGE_CURVE ( 'NONE', #16, #4, #258, .T. ) ;
#222 = DIRECTION ( 'NONE',  ( 0.7071067811865511255, -0.7071067811865440200, 0.000000000000000000 ) ) ;
#223 = ORIENTED_EDGE ( 'NONE', *, *, #125, .F. ) ;
#224 = DIRECTION ( 'NONE',  ( 1.000000000000000000, -5.502958859365729424E-17, 0.000000000000000000 ) ) ;
#225 = DATE_AND_TIME ( #192, #143 ) ;
#226 = ORIENTED_EDGE ( 'NONE', *, *, #150, .T. ) ;
#227 = CC_DESIGN_DATE_AND_TIME_ASSIGNMENT ( #263, #316, ( #255 ) ) ;
#228 = PERSON ( 'NAUO-PER2', 'UNSPECIFIED', 'UNSPECIFIED', ('UNSPECIFIED'), ('UNSPECIFIED'), ('UNSPECIFIED') ) ;
#229 = CARTESIAN_POINT ( 'NONE',  ( 0.000000000000000000, 0.000000000000000000, 25.00000000000000000 ) ) ;
#230 = ORGANIZATION ( 'NAUO-ORG1', 'UNSPECIFIED', 'UNSPECIFIED' ) ;
#231 = VECTOR ( 'NONE', #224, 1000.000000000000000 ) ;
#232 = DIRECTION ( 'NONE',  ( 5.551115123125782702E-17, 0.000000000000000000, 1.000000000000000222 ) ) ;
#233 = APPROVAL ( #78, 'UNSPECIFIED' ) ;
#234 = CARTESIAN_POINT ( 'NONE',  ( 0.000000000000000000, 0.000000000000000000, 0.000000000000000000 ) ) ;
#235 = COORDINATED_UNIVERSAL_TIME_OFFSET ( 5, 0, .BEHIND. ) ;
#236 = CC_DESIGN_PERSON_AND_ORGANIZATION_ASSIGNMENT ( #317, #186, ( #136 ) ) ;
#237 = COORDINATED_UNIVERSAL_TIME_OFFSET ( 5, 0, .BEHIND. ) ;
#238 = LINE ( 'NONE', #194, #9 ) ;
#239 = PERSON_AND_ORGANIZATION ( #6, #134 ) ;
#240 = ORIENTED_EDGE ( 'NONE', *, *, #79, .F. ) ;
#241 = AXIS2_PLACEMENT_3D ( 'NONE', #122, #322, #275 ) ;
#242 = PERSON_AND_ORGANIZATION_ROLE ( 'design_owner' ) ;
#243 = ADVANCED_FACE ( 'NONE', ( #291 ), #34, .F. ) ;
#244 = APPROVAL_DATE_TIME ( #339, #203 ) ;
#245 = PERSON_AND_ORGANIZATION ( #6, #134 ) ;
#246 = LINE ( 'NONE', #117, #108 ) ;
#247 = DATE_TIME_ROLE ( 'classification_date' ) ;
#248 = APPROVAL ( #12, 'UNSPECIFIED' ) ;
#249 =( REPRESENTATION_RELATIONSHIP ('NONE','NONE', #98, #100 ) REPRESENTATION_RELATIONSHIP_WITH_TRANSFORMATION ( #132 )SHAPE_REPRESENTATION_RELATIONSHIP( ) );
#250 = COORDINATED_UNIVERSAL_TIME_OFFSET ( 5, 0, .BEHIND. ) ;
#251 = LINE ( 'NONE', #305, #164 ) ;
#252 = CC_DESIGN_PERSON_AND_ORGANIZATION_ASSIGNMENT ( #183, #54, ( #185 ) ) ;
#253 = PRODUCT_DEFINITION_SHAPE ( 'NONE', 'NONE',  #136 ) ;
#254 = CARTESIAN_POINT ( 'NONE',  ( 35.35533905932755516, -3.891179526048115645E-15, -25.00000000000000000 ) ) ;
#255 = PRODUCT_DEFINITION ( 'UNKNOWN', '', #2, #219 ) ;
#256 = DATE_AND_TIME ( #162, #335 ) ;
#257 = APPROVAL_PERSON_ORGANIZATION ( #45, #203, #354 ) ;
#258 = LINE ( 'NONE', #22, #208 ) ;
#259 = DIRECTION ( 'NONE',  ( -0.7071067811865512365, -0.7071067811865439090, 0.000000000000000000 ) ) ;
#260 = AXIS2_PLACEMENT_3D ( 'NONE', #313, #197, #173 ) ;
#261 = PLANE ( 'NONE',  #319 ) ;
#262 = DATE_AND_TIME ( #115, #24 ) ;
#263 = DATE_AND_TIME ( #336, #61 ) ;
#264 = FACE_OUTER_BOUND ( 'NONE', #216, .T. ) ;
#265 = APPROVAL_STATUS ( 'not_yet_approved' ) ;
#266 = MECHANICAL_CONTEXT ( 'NONE', #293, 'mechanical' ) ;
#267 = COORDINATED_UNIVERSAL_TIME_OFFSET ( 5, 0, .BEHIND. ) ;
#268 = CALENDAR_DATE ( 2021, 20, 9 ) ;
#269 =( NAMED_UNIT ( * ) PLANE_ANGLE_UNIT ( ) SI_UNIT ( $, .RADIAN. ) );
#270 = UNCERTAINTY_MEASURE_WITH_UNIT (LENGTH_MEASURE( 1.000000000000000082E-05 ), #342, 'distance_accuracy_value', 'NONE');
#271 = AXIS2_PLACEMENT_3D ( 'NONE', #229, #62, #283 ) ;
#272 = CALENDAR_DATE ( 2021, 20, 9 ) ;
#273 = APPROVAL_PERSON_ORGANIZATION ( #163, #338, #19 ) ;
#274 = DATE_TIME_ROLE ( 'creation_date' ) ;
#275 = DIRECTION ( 'NONE',  ( 1.000000000000000000, 0.000000000000000000, 0.000000000000000000 ) ) ;
#276 = APPROVAL_STATUS ( 'not_yet_approved' ) ;
#277 = CC_DESIGN_PERSON_AND_ORGANIZATION_ASSIGNMENT ( #3, #178, ( #202 ) ) ;
#278 = DATE_AND_TIME ( #207, #346 ) ;
#279 = CC_DESIGN_APPROVAL ( #123, ( #185 ) ) ;
#280 = CARTESIAN_POINT ( 'NONE',  ( 35.35533905932755516, -3.891179526048115645E-15, 25.00000000000000000 ) ) ;
#281 = AXIS2_PLACEMENT_3D ( 'NONE', #96, #298, #205 ) ;
#282 = APPROVAL_PERSON_ORGANIZATION ( #320, #233, #153 ) ;
#283 = DIRECTION ( 'NONE',  ( 1.000000000000000000, 0.000000000000000000, -0.000000000000000000 ) ) ;
#284 = PRODUCT ( '50x50 Right Angle Prism Master', '50x50 Right Angle Prism Master', '', ( #266 ) ) ;
#285 = COORDINATED_UNIVERSAL_TIME_OFFSET ( 5, 0, .BEHIND. ) ;
#286 = ORIENTED_EDGE ( 'NONE', *, *, #182, .F. ) ;
#287 = PRODUCT_DEFINITION_FORMATION_WITH_SPECIFIED_SOURCE ( 'ANY', '', #284, .NOT_KNOWN. ) ;
#288 = DIRECTION ( 'NONE',  ( 1.000000000000000000, -5.502958859365729424E-17, 0.000000000000000000 ) ) ;
#289 = UNCERTAINTY_MEASURE_WITH_UNIT (LENGTH_MEASURE( 1.000000000000000082E-05 ), #105, 'distance_accuracy_value', 'NONE');
#290 = PERSON_AND_ORGANIZATION_ROLE ( 'design_supplier' ) ;
#291 = FACE_OUTER_BOUND ( 'NONE', #180, .T. ) ;
#292 = APPLICATION_PROTOCOL_DEFINITION ( 'international standard', 'config_control_design', 1994, #8 ) ;
#293 = APPLICATION_CONTEXT ( 'configuration controlled 3d designs of mechanical parts and assemblies' ) ;
#294 = CC_DESIGN_PERSON_AND_ORGANIZATION_ASSIGNMENT ( #333, #74, ( #255 ) ) ;
#295 = FACE_OUTER_BOUND ( 'NONE', #149, .T. ) ;
#296 = CC_DESIGN_PERSON_AND_ORGANIZATION_ASSIGNMENT ( #28, #138, ( #287 ) ) ;
#297 =( NAMED_UNIT ( * ) SI_UNIT ( $, .STERADIAN. ) SOLID_ANGLE_UNIT ( ) );
#298 = DIRECTION ( 'NONE',  ( 0.000000000000000000, 0.000000000000000000, 1.000000000000000000 ) ) ;
#299 = PERSON_AND_ORGANIZATION_ROLE ( 'classification_officer' ) ;
#300 =( REPRESENTATION_RELATIONSHIP ('NONE','NONE', #98, #100 ) REPRESENTATION_RELATIONSHIP_WITH_TRANSFORMATION ( #187 )SHAPE_REPRESENTATION_RELATIONSHIP( ) );
#301 = COORDINATED_UNIVERSAL_TIME_OFFSET ( 5, 0, .BEHIND. ) ;
#302 = VERTEX_POINT ( 'NONE', #147 ) ;
#303 = CC_DESIGN_PERSON_AND_ORGANIZATION_ASSIGNMENT ( #107, #290, ( #2 ) ) ;
#304 = EDGE_LOOP ( 'NONE', ( #111, #226, #312 ) ) ;
#305 = CARTESIAN_POINT ( 'NONE',  ( 1.732185581861186806E-15, 35.35533905932718568, -25.00000000000000000 ) ) ;
#306 = COORDINATED_UNIVERSAL_TIME_OFFSET ( 5, 0, .BEHIND. ) ;
#307 = DIRECTION ( 'NONE',  ( 0.000000000000000000, 0.000000000000000000, 1.000000000000000000 ) ) ;
#308 = CC_DESIGN_DATE_AND_TIME_ASSIGNMENT ( #188, #274, ( #136 ) ) ;
#309 = PLANE ( 'NONE',  #31 ) ;
#310 = DIRECTION ( 'NONE',  ( -0.000000000000000000, -0.000000000000000000, -1.000000000000000000 ) ) ;
#311 = APPROVAL_DATE_TIME ( #256, #112 ) ;
#312 = ORIENTED_EDGE ( 'NONE', *, *, #167, .T. ) ;
#313 = CARTESIAN_POINT ( 'NONE',  ( -35.35533905932755516, 0.000000000000000000, 25.00000000000000000 ) ) ;
#314 = APPLICATION_CONTEXT ( 'configuration controlled 3d designs of mechanical parts and assemblies' ) ;
#315 = LOCAL_TIME ( 9, 53, 16.00000000000000000, #139 ) ;
#316 = DATE_TIME_ROLE ( 'creation_date' ) ;
#317 = PERSON_AND_ORGANIZATION ( #6, #134 ) ;
#318 = ORIENTED_EDGE ( 'NONE', *, *, #217, .F. ) ;
#319 = AXIS2_PLACEMENT_3D ( 'NONE', #63, #307, #5 ) ;
#320 = PERSON_AND_ORGANIZATION ( #6, #134 ) ;
#321 = ORIENTED_EDGE ( 'NONE', *, *, #150, .F. ) ;
#322 = DIRECTION ( 'NONE',  ( 0.000000000000000000, 0.000000000000000000, 1.000000000000000000 ) ) ;
#323 = DIRECTION ( 'NONE',  ( 0.000000000000000000, 0.000000000000000000, 1.000000000000000000 ) ) ;
#324 = COORDINATED_UNIVERSAL_TIME_OFFSET ( 5, 0, .BEHIND. ) ;
#325 = APPROVAL_ROLE ( '' ) ;
#326 = PERSON_AND_ORGANIZATION ( #6, #134 ) ;
#327 = SECURITY_CLASSIFICATION ( '', '', #73 ) ;
#328 = DATE_AND_TIME ( #166, #43 ) ;
#329 = EDGE_LOOP ( 'NONE', ( #83, #240, #223 ) ) ;
#330 = CC_DESIGN_DATE_AND_TIME_ASSIGNMENT ( #355, #340, ( #327 ) ) ;
#331 = CARTESIAN_POINT ( 'NONE',  ( -35.35533905932755516, 0.000000000000000000, 25.00000000000000000 ) ) ;
#332 = DIRECTION ( 'NONE',  ( -0.7071067811865512365, -0.7071067811865439090, 0.000000000000000000 ) ) ;
#333 = PERSON_AND_ORGANIZATION ( #6, #134 ) ;
#334 = CARTESIAN_POINT ( 'NONE',  ( -35.35533905932755516, 0.000000000000000000, 25.00000000000000000 ) ) ;
#335 = LOCAL_TIME ( 9, 53, 16.00000000000000000, #324 ) ;
#336 = CALENDAR_DATE ( 2021, 20, 9 ) ;
#337 = LINE ( 'NONE', #38, #128 ) ;
#338 = APPROVAL ( #151, 'UNSPECIFIED' ) ;
#339 = DATE_AND_TIME ( #345, #25 ) ;
#340 = DATE_TIME_ROLE ( 'classification_date' ) ;
#341 = APPROVAL_PERSON_ORGANIZATION ( #32, #59, #23 ) ;
#342 =( LENGTH_UNIT ( ) NAMED_UNIT ( * ) SI_UNIT ( .MILLI., .METRE. ) );
#343 = PERSON_AND_ORGANIZATION_ROLE ( 'classification_officer' ) ;
#344 = CC_DESIGN_PERSON_AND_ORGANIZATION_ASSIGNMENT ( #92, #218, ( #10 ) ) ;
#345 = CALENDAR_DATE ( 2021, 20, 9 ) ;
#346 = LOCAL_TIME ( 9, 53, 16.00000000000000000, #285 ) ;
#347 = ADVANCED_FACE ( 'NONE', ( #144 ), #145, .T. ) ;
#348 = ADVANCED_BREP_SHAPE_REPRESENTATION ( '', ( #14, #241 ), #99 ) ;
#349 = CC_DESIGN_SECURITY_CLASSIFICATION ( #327, ( #2 ) ) ;
#350 = APPLICATION_PROTOCOL_DEFINITION ( 'international standard', 'config_control_design', 1994, #204 ) ;
#351 = CONTEXT_DEPENDENT_SHAPE_REPRESENTATION ( #300, #129 ) ;
#352 = APPROVAL_DATE_TIME ( #72, #233 ) ;
#353 = APPROVAL_STATUS ( 'not_yet_approved' ) ;
#354 = APPROVAL_ROLE ( '' ) ;
#355 = DATE_AND_TIME ( #53, #116 ) ;
#356 = LINE ( 'NONE', #196, #231 ) ;
#357 = CC_DESIGN_APPROVAL ( #203, ( #287 ) ) ;
#358 = CARTESIAN_POINT ( 'NONE',  ( 1.732185581861186806E-15, 35.35533905932718568, -25.00000000000000000 ) ) ;
#359 = CARTESIAN_POINT ( 'NONE',  ( 35.35533905932755516, -3.891179526048115645E-15, 25.00000000000000000 ) ) ;
#360 = NEXT_ASSEMBLY_USAGE_OCCURRENCE ( 'NAUO1', ' ', ' ', #255, #136, $ ) ;
#361 = NEXT_ASSEMBLY_USAGE_OCCURRENCE ( 'NAUO2', ' ', ' ', #255, #136, $ ) ;
ENDSEC;
END-ISO-10303-21;
