ISO-10303-21;
HEADER;
FILE_DESCRIPTION (( 'STEP AP203' ),
    '1' );
FILE_NAME ('Web Model 46457_47606.step',
    '2018-03-15T18:31:21',
    ( '' ),
    ( '' ),
    'SwSTEP 2.0',
    'SolidWorks 2016',
    '' );
FILE_SCHEMA (( 'CONFIG_CONTROL_DESIGN' ));
ENDSEC;

DATA;
#1 = SECURITY_CLASSIFICATION_LEVEL ( 'unclassified' ) ;
#2 = PRODUCT_RELATED_PRODUCT_CATEGORY ( 'detail', '', ( #4 ) ) ;
#3 = CALENDAR_DATE ( 2018, 15, 3 ) ;
#4 = PRODUCT ( 'Web Model 46457_47606', 'Web Model 46457_47606', '', ( #151 ) ) ;
#5 = PERSON ( 'UNSPECIFIED', 'UNSPECIFIED', 'UNSPECIFIED', ('UNSPECIFIED'), ('UNSPECIFIED'), ('UNSPECIFIED') ) ;
#6 = DESIGN_CONTEXT ( 'detailed design', #110, 'design' ) ;
#7 = DIRECTION ( 'NONE',  ( 0.0000000000000000000, 0.0000000000000000000, -1.000000000000000000 ) ) ;
#8 = DIRECTION ( 'NONE',  ( 1.000000000000000000, 0.0000000000000000000, 0.0000000000000000000 ) ) ;
#9 = CARTESIAN_POINT ( 'NONE',  ( -0.7500000000000000000, 0.0000000000000000000, 0.0000000000000000000 ) ) ;
#10 = DATE_AND_TIME ( #41, #149 ) ;
#11 = APPROVAL_ROLE ( '' ) ;
#12 = APPROVAL ( #71, 'UNSPECIFIED' ) ;
#13 = PERSON_AND_ORGANIZATION ( #5, #37 ) ;
#14 = PRODUCT_DEFINITION_FORMATION_WITH_SPECIFIED_SOURCE ( 'ANY', '', #4, .NOT_KNOWN. ) ;
#15 = COORDINATED_UNIVERSAL_TIME_OFFSET ( 5, 0, .BEHIND. ) ;
#16 = PERSON_AND_ORGANIZATION ( #5, #37 ) ;
#17 = CARTESIAN_POINT ( 'NONE',  ( 0.7500000000000000000, 0.0000000000000000000, 0.0000000000000000000 ) ) ;
#18 = ORIENTED_EDGE ( 'NONE', *, *, #111, .T. ) ;
#19 = APPLICATION_CONTEXT ( 'configuration controlled 3d designs of mechanical parts and assemblies' ) ;
#20 = DIRECTION ( 'NONE',  ( 1.000000000000000000, 0.0000000000000000000, 0.0000000000000000000 ) ) ;
#21 = AXIS2_PLACEMENT_3D ( 'NONE', #137, #147, #107 ) ;
#22 = APPROVAL_PERSON_ORGANIZATION ( #76, #47, #11 ) ;
#23 = DATE_TIME_ROLE ( 'classification_date' ) ;
#24 = ORIENTED_EDGE ( 'NONE', *, *, #46, .F. ) ;
#25 = CLOSED_SHELL ( 'NONE', ( #43, #109, #150, #157 ) ) ;
#26 = FACE_OUTER_BOUND ( 'NONE', #74, .T. ) ;
#27 = DATE_AND_TIME ( #3, #119 ) ;
#28 = PLANE ( 'NONE',  #122 ) ;
#29 = DIRECTION ( 'NONE',  ( 1.000000000000000000, 0.0000000000000000000, 0.0000000000000000000 ) ) ;
#30 = DIRECTION ( 'NONE',  ( -1.000000000000000000, -0.0000000000000000000, -0.0000000000000000000 ) ) ;
#31 = PERSON_AND_ORGANIZATION_ROLE ( 'classification_officer' ) ;
#32 = DATE_AND_TIME ( #118, #75 ) ;
#33 = EDGE_LOOP ( 'NONE', ( #106, #104, #117, #80 ) ) ;
#34 = CC_DESIGN_PERSON_AND_ORGANIZATION_ASSIGNMENT ( #146, #90, ( #148 ) ) ;
#35 = LINE ( 'NONE', #84, #89 ) ;
#36 = EDGE_CURVE ( 'NONE', #143, #57, #135, .T. ) ;
#37 = ORGANIZATION ( 'UNSPECIFIED', 'UNSPECIFIED', '' ) ;
#38 = ORIENTED_EDGE ( 'NONE', *, *, #133, .F. ) ;
#39 = APPROVAL_DATE_TIME ( #72, #144 ) ;
#40 = CIRCLE ( 'NONE', #131, 6.349999999999999600 ) ;
#41 = CALENDAR_DATE ( 2018, 15, 3 ) ;
#42 = CARTESIAN_POINT ( 'NONE',  ( -0.7500000000000000000, 0.0000000000000000000, 0.0000000000000000000 ) ) ;
#43 = ADVANCED_FACE ( 'NONE', ( #26 ), #170, .T. ) ;
#44 = AXIS2_PLACEMENT_3D ( 'NONE', #86, #30, #152 ) ;
#45 = EDGE_LOOP ( 'NONE', ( #38, #98 ) ) ;
#46 = EDGE_CURVE ( 'NONE', #64, #143, #51, .T. ) ;
#47 = APPROVAL ( #141, 'UNSPECIFIED' ) ;
#48 = CALENDAR_DATE ( 2018, 15, 3 ) ;
#49 = CALENDAR_DATE ( 2018, 15, 3 ) ;
#50 =( LENGTH_UNIT ( ) NAMED_UNIT ( * ) SI_UNIT ( .MILLI., .METRE. ) );
#51 = CIRCLE ( 'NONE', #164, 6.349999999999999600 ) ;
#52 = DIRECTION ( 'NONE',  ( 1.000000000000000000, 0.0000000000000000000, 0.0000000000000000000 ) ) ;
#53 = DIRECTION ( 'NONE',  ( -1.000000000000000000, -0.0000000000000000000, -0.0000000000000000000 ) ) ;
#54 = DIRECTION ( 'NONE',  ( -1.000000000000000000, -0.0000000000000000000, -0.0000000000000000000 ) ) ;
#55 = CC_DESIGN_PERSON_AND_ORGANIZATION_ASSIGNMENT ( #94, #128, ( #4 ) ) ;
#56 = DIRECTION ( 'NONE',  ( 0.0000000000000000000, 0.0000000000000000000, 1.000000000000000000 ) ) ;
#57 = VERTEX_POINT ( 'NONE', #172 ) ;
#58 = CC_DESIGN_APPROVAL ( #47, ( #14 ) ) ;
#59 = APPROVAL_STATUS ( 'not_yet_approved' ) ;
#60 = VECTOR ( 'NONE', #53, 1000.000000000000000 ) ;
#61 = AXIS2_PLACEMENT_3D ( 'NONE', #125, #69, #156 ) ;
#62 = SHAPE_DEFINITION_REPRESENTATION ( #78, #63 ) ;
#63 = ADVANCED_BREP_SHAPE_REPRESENTATION ( 'Web Model 46457_47606', ( #171, #88 ), #140 ) ;
#64 = VERTEX_POINT ( 'NONE', #67 ) ;
#65 = CC_DESIGN_APPROVAL ( #12, ( #148 ) ) ;
#66 =( NAMED_UNIT ( * ) SI_UNIT ( $, .STERADIAN. ) SOLID_ANGLE_UNIT ( ) );
#67 = CARTESIAN_POINT ( 'NONE',  ( 0.7500000000000000000, 7.776507174585692200E-016, -6.349999999999999600 ) ) ;
#68 = EDGE_LOOP ( 'NONE', ( #120, #166 ) ) ;
#69 = DIRECTION ( 'NONE',  ( 1.000000000000000000, 0.0000000000000000000, 0.0000000000000000000 ) ) ;
#70 = PLANE ( 'NONE',  #134 ) ;
#71 = APPROVAL_STATUS ( 'not_yet_approved' ) ;
#72 = DATE_AND_TIME ( #49, #101 ) ;
#73 = EDGE_CURVE ( 'NONE', #143, #64, #130, .T. ) ;
#74 = EDGE_LOOP ( 'NONE', ( #24, #18, #132, #145 ) ) ;
#75 = LOCAL_TIME ( 14, 31, 21.00000000000000000, #15 ) ;
#76 = PERSON_AND_ORGANIZATION ( #5, #37 ) ;
#77 = COORDINATED_UNIVERSAL_TIME_OFFSET ( 5, 0, .BEHIND. ) ;
#78 = PRODUCT_DEFINITION_SHAPE ( 'NONE', 'NONE',  #148 ) ;
#79 = DIRECTION ( 'NONE',  ( 0.0000000000000000000, 0.0000000000000000000, -1.000000000000000000 ) ) ;
#80 = ORIENTED_EDGE ( 'NONE', *, *, #133, .T. ) ;
#81 =( NAMED_UNIT ( * ) PLANE_ANGLE_UNIT ( ) SI_UNIT ( $, .RADIAN. ) );
#82 = EDGE_CURVE ( 'NONE', #95, #57, #40, .T. ) ;
#83 = DIRECTION ( 'NONE',  ( 0.0000000000000000000, 0.0000000000000000000, -1.000000000000000000 ) ) ;
#84 = CARTESIAN_POINT ( 'NONE',  ( 0.7500000000000000000, 7.776507174585692200E-016, -6.349999999999999600 ) ) ;
#85 = CC_DESIGN_PERSON_AND_ORGANIZATION_ASSIGNMENT ( #161, #31, ( #102 ) ) ;
#86 = CARTESIAN_POINT ( 'NONE',  ( 0.7500000000000000000, 0.0000000000000000000, 0.0000000000000000000 ) ) ;
#87 = PERSON_AND_ORGANIZATION_ROLE ( 'design_supplier' ) ;
#88 = AXIS2_PLACEMENT_3D ( 'NONE', #139, #56, #29 ) ;
#89 = VECTOR ( 'NONE', #54, 1000.000000000000000 ) ;
#90 = PERSON_AND_ORGANIZATION_ROLE ( 'creator' ) ;
#91 = COORDINATED_UNIVERSAL_TIME_OFFSET ( 5, 0, .BEHIND. ) ;
#92 = APPROVAL_DATE_TIME ( #27, #12 ) ;
#93 = UNCERTAINTY_MEASURE_WITH_UNIT (LENGTH_MEASURE( 1.000000000000000100E-005 ), #50, 'distance_accuracy_value', 'NONE');
#94 = PERSON_AND_ORGANIZATION ( #5, #37 ) ;
#95 = VERTEX_POINT ( 'NONE', #100 ) ;
#96 = CC_DESIGN_DATE_AND_TIME_ASSIGNMENT ( #169, #114, ( #148 ) ) ;
#97 = DIRECTION ( 'NONE',  ( 0.0000000000000000000, 0.0000000000000000000, -1.000000000000000000 ) ) ;
#98 = ORIENTED_EDGE ( 'NONE', *, *, #82, .F. ) ;
#99 = CARTESIAN_POINT ( 'NONE',  ( 0.7500000000000000000, 0.0000000000000000000, 0.0000000000000000000 ) ) ;
#100 = CARTESIAN_POINT ( 'NONE',  ( -0.7500000000000000000, 7.776507174585692200E-016, -6.349999999999999600 ) ) ;
#101 = LOCAL_TIME ( 14, 31, 21.00000000000000000, #108 ) ;
#102 = SECURITY_CLASSIFICATION ( '', '', #1 ) ;
#103 = PERSON_AND_ORGANIZATION ( #5, #37 ) ;
#104 = ORIENTED_EDGE ( 'NONE', *, *, #73, .F. ) ;
#105 = CC_DESIGN_PERSON_AND_ORGANIZATION_ASSIGNMENT ( #16, #87, ( #14 ) ) ;
#106 = ORIENTED_EDGE ( 'NONE', *, *, #111, .F. ) ;
#107 = DIRECTION ( 'NONE',  ( 0.0000000000000000000, 0.0000000000000000000, 1.000000000000000000 ) ) ;
#108 = COORDINATED_UNIVERSAL_TIME_OFFSET ( 5, 0, .BEHIND. ) ;
#109 = ADVANCED_FACE ( 'NONE', ( #162 ), #174, .T. ) ;
#110 = APPLICATION_CONTEXT ( 'configuration controlled 3d designs of mechanical parts and assemblies' ) ;
#111 = EDGE_CURVE ( 'NONE', #64, #95, #35, .T. ) ;
#112 = CC_DESIGN_PERSON_AND_ORGANIZATION_ASSIGNMENT ( #165, #160, ( #14 ) ) ;
#113 = APPLICATION_PROTOCOL_DEFINITION ( 'international standard', 'config_control_design', 1994, #19 ) ;
#114 = DATE_TIME_ROLE ( 'creation_date' ) ;
#115 = CC_DESIGN_SECURITY_CLASSIFICATION ( #102, ( #14 ) ) ;
#116 = APPROVAL_PERSON_ORGANIZATION ( #103, #144, #163 ) ;
#117 = ORIENTED_EDGE ( 'NONE', *, *, #36, .T. ) ;
#118 = CALENDAR_DATE ( 2018, 15, 3 ) ;
#119 = LOCAL_TIME ( 14, 31, 21.00000000000000000, #158 ) ;
#120 = ORIENTED_EDGE ( 'NONE', *, *, #73, .T. ) ;
#121 = AXIS2_PLACEMENT_3D ( 'NONE', #99, #52, #7 ) ;
#122 = AXIS2_PLACEMENT_3D ( 'NONE', #17, #20, #154 ) ;
#123 = FACE_OUTER_BOUND ( 'NONE', #68, .T. ) ;
#124 = CARTESIAN_POINT ( 'NONE',  ( 0.7500000000000000000, 0.0000000000000000000, 6.349999999999999600 ) ) ;
#125 = CARTESIAN_POINT ( 'NONE',  ( -0.7500000000000000000, 0.0000000000000000000, 0.0000000000000000000 ) ) ;
#126 = CARTESIAN_POINT ( 'NONE',  ( 0.7500000000000000000, 0.0000000000000000000, 6.349999999999999600 ) ) ;
#127 = APPLICATION_PROTOCOL_DEFINITION ( 'international standard', 'config_control_design', 1994, #110 ) ;
#128 = PERSON_AND_ORGANIZATION_ROLE ( 'design_owner' ) ;
#129 = APPROVAL_ROLE ( '' ) ;
#130 = CIRCLE ( 'NONE', #121, 6.349999999999999600 ) ;
#131 = AXIS2_PLACEMENT_3D ( 'NONE', #42, #175, #79 ) ;
#132 = ORIENTED_EDGE ( 'NONE', *, *, #82, .T. ) ;
#133 = EDGE_CURVE ( 'NONE', #57, #95, #138, .T. ) ;
#134 = AXIS2_PLACEMENT_3D ( 'NONE', #9, #8, #97 ) ;
#135 = LINE ( 'NONE', #126, #60 ) ;
#136 = APPROVAL_DATE_TIME ( #32, #47 ) ;
#137 = CARTESIAN_POINT ( 'NONE',  ( 0.7500000000000000000, 0.0000000000000000000, 0.0000000000000000000 ) ) ;
#138 = CIRCLE ( 'NONE', #61, 6.349999999999999600 ) ;
#139 = CARTESIAN_POINT ( 'NONE',  ( 0.0000000000000000000, 0.0000000000000000000, 0.0000000000000000000 ) ) ;
#140 =( GEOMETRIC_REPRESENTATION_CONTEXT ( 3 ) GLOBAL_UNCERTAINTY_ASSIGNED_CONTEXT ( ( #93 ) ) GLOBAL_UNIT_ASSIGNED_CONTEXT ( ( #50, #81, #66 ) ) REPRESENTATION_CONTEXT ( 'NONE', 'WORKASPACE' ) );
#141 = APPROVAL_STATUS ( 'not_yet_approved' ) ;
#142 = APPROVAL_PERSON_ORGANIZATION ( #13, #12, #129 ) ;
#143 = VERTEX_POINT ( 'NONE', #124 ) ;
#144 = APPROVAL ( #59, 'UNSPECIFIED' ) ;
#145 = ORIENTED_EDGE ( 'NONE', *, *, #36, .F. ) ;
#146 = PERSON_AND_ORGANIZATION ( #5, #37 ) ;
#147 = DIRECTION ( 'NONE',  ( -1.000000000000000000, -0.0000000000000000000, -0.0000000000000000000 ) ) ;
#148 = PRODUCT_DEFINITION ( 'UNKNOWN', '', #14, #6 ) ;
#149 = LOCAL_TIME ( 14, 31, 21.00000000000000000, #77 ) ;
#150 = ADVANCED_FACE ( 'NONE', ( #123 ), #28, .T. ) ;
#151 = MECHANICAL_CONTEXT ( 'NONE', #19, 'mechanical' ) ;
#152 = DIRECTION ( 'NONE',  ( 0.0000000000000000000, 0.0000000000000000000, 1.000000000000000000 ) ) ;
#153 = FACE_OUTER_BOUND ( 'NONE', #45, .T. ) ;
#154 = DIRECTION ( 'NONE',  ( 0.0000000000000000000, 0.0000000000000000000, -1.000000000000000000 ) ) ;
#155 = DIRECTION ( 'NONE',  ( 1.000000000000000000, 0.0000000000000000000, 0.0000000000000000000 ) ) ;
#156 = DIRECTION ( 'NONE',  ( 0.0000000000000000000, 0.0000000000000000000, -1.000000000000000000 ) ) ;
#157 = ADVANCED_FACE ( 'NONE', ( #153 ), #70, .F. ) ;
#158 = COORDINATED_UNIVERSAL_TIME_OFFSET ( 5, 0, .BEHIND. ) ;
#159 = CC_DESIGN_DATE_AND_TIME_ASSIGNMENT ( #10, #23, ( #102 ) ) ;
#160 = PERSON_AND_ORGANIZATION_ROLE ( 'creator' ) ;
#161 = PERSON_AND_ORGANIZATION ( #5, #37 ) ;
#162 = FACE_OUTER_BOUND ( 'NONE', #33, .T. ) ;
#163 = APPROVAL_ROLE ( '' ) ;
#164 = AXIS2_PLACEMENT_3D ( 'NONE', #173, #155, #83 ) ;
#165 = PERSON_AND_ORGANIZATION ( #5, #37 ) ;
#166 = ORIENTED_EDGE ( 'NONE', *, *, #46, .T. ) ;
#167 = CC_DESIGN_APPROVAL ( #144, ( #102 ) ) ;
#168 = LOCAL_TIME ( 14, 31, 21.00000000000000000, #91 ) ;
#169 = DATE_AND_TIME ( #48, #168 ) ;
#170 = CYLINDRICAL_SURFACE ( 'NONE', #21, 6.349999999999999600 ) ;
#171 = MANIFOLD_SOLID_BREP ( 'Boss-Extrude1', #25 ) ;
#172 = CARTESIAN_POINT ( 'NONE',  ( -0.7500000000000000000, 0.0000000000000000000, 6.349999999999999600 ) ) ;
#173 = CARTESIAN_POINT ( 'NONE',  ( 0.7500000000000000000, 0.0000000000000000000, 0.0000000000000000000 ) ) ;
#174 = CYLINDRICAL_SURFACE ( 'NONE', #44, 6.349999999999999600 ) ;
#175 = DIRECTION ( 'NONE',  ( 1.000000000000000000, 0.0000000000000000000, 0.0000000000000000000 ) ) ;
ENDSEC;
END-ISO-10303-21;
