ISO-10303-21;
HEADER;
FILE_DESCRIPTION (( 'STEP AP203' ),
    '1' );
FILE_NAME ('21985-E0W.STEP',
    '2018-06-01T18:07:29',
    ( 'admin' ),
    ( '' ),
    'SwSTEP 2.0',
    'SolidWorks 2016',
    '' );
FILE_SCHEMA (( 'CONFIG_CONTROL_DESIGN' ));
ENDSEC;

DATA;
#1 = EDGE_CURVE ( 'NONE', #16, #113, #306, .T. ) ;
#2 = DIRECTION ( 'NONE',  ( 0.0000000000000000000, -1.000000000000000000, -1.707404996040164000E-016 ) ) ;
#3 = EDGE_CURVE ( 'NONE', #94, #86, #106, .T. ) ;
#4 = CARTESIAN_POINT ( 'NONE',  ( 0.0000000000000000000, 4.732901571585448300E-016, 0.05093520494393352600 ) ) ;
#5 = EDGE_LOOP ( 'NONE', ( #254, #93, #322 ) ) ;
#6 = ADVANCED_FACE ( 'NONE', ( #272 ), #194, .T. ) ;
#7 = DIRECTION ( 'NONE',  ( -1.000000000000000000, 1.224646799147353200E-016, 2.249565377136128300E-032 ) ) ;
#8 = DIRECTION ( 'NONE',  ( 8.659560562354674000E-017, 0.7071067811865262600, 0.7071067811865687800 ) ) ;
#9 = EDGE_CURVE ( 'NONE', #207, #86, #168, .T. ) ;
#10 = COORDINATED_UNIVERSAL_TIME_OFFSET ( 5, 0, .BEHIND. ) ;
#11 = ORGANIZATION ( 'UNSPECIFIED', 'UNSPECIFIED', '' ) ;
#12 = DIRECTION ( 'NONE',  ( -0.0000000000000000000, -1.836909530733566100E-016, 1.000000000000000000 ) ) ;
#13 =( NAMED_UNIT ( * ) PLANE_ANGLE_UNIT ( ) SI_UNIT ( $, .RADIAN. ) );
#14 = AXIS2_PLACEMENT_3D ( 'NONE', #154, #165, #124 ) ;
#15 = CYLINDRICAL_SURFACE ( 'NONE', #246, 0.2500000000000000000 ) ;
#16 = VERTEX_POINT ( 'NONE', #323 ) ;
#17 = DIRECTION ( 'NONE',  ( -1.000000000000000000, 0.0000000000000000000, 0.0000000000000000000 ) ) ;
#18 = DIRECTION ( 'NONE',  ( 0.0000000000000000000, 0.7071067811865324700, -0.7071067811865625600 ) ) ;
#19 = PERSON_AND_ORGANIZATION ( #119, #11 ) ;
#20 = CARTESIAN_POINT ( 'NONE',  ( 0.0000000000000000000, 1.455014456949820400E-017, -0.02827470891441306200 ) ) ;
#21 = ORIENTED_EDGE ( 'NONE', *, *, #186, .F. ) ;
#22 = AXIS2_PLACEMENT_3D ( 'NONE', #180, #82, #71 ) ;
#23 = LINE ( 'NONE', #30, #182 ) ;
#24 = AXIS2_PLACEMENT_3D ( 'NONE', #114, #259, #178 ) ;
#25 = ADVANCED_FACE ( 'NONE', ( #224 ), #193, .T. ) ;
#26 = VECTOR ( 'NONE', #18, 39.37007874015748100 ) ;
#27 = CC_DESIGN_PERSON_AND_ORGANIZATION_ASSIGNMENT ( #173, #134, ( #310 ) ) ;
#28 = CC_DESIGN_PERSON_AND_ORGANIZATION_ASSIGNMENT ( #128, #104, ( #73 ) ) ;
#29 = ADVANCED_FACE ( 'NONE', ( #108 ), #15, .T. ) ;
#30 = CARTESIAN_POINT ( 'NONE',  ( 2.993431481629369600E-017, 0.2444322300693974300, -0.02827470891441301300 ) ) ;
#31 = ORIENTED_EDGE ( 'NONE', *, *, #261, .F. ) ;
#32 = DIRECTION ( 'NONE',  ( 0.0000000000000000000, -1.000000000000000000, -1.707404996040164000E-016 ) ) ;
#33 = COORDINATED_UNIVERSAL_TIME_OFFSET ( 5, 0, .BEHIND. ) ;
#34 = CARTESIAN_POINT ( 'NONE',  ( 3.061616997868383600E-017, -0.2500000000000000600, 0.06088906281797416800 ) ) ;
#35 = AXIS2_PLACEMENT_3D ( 'NONE', #200, #92, #217 ) ;
#36 = PERSON_AND_ORGANIZATION ( #119, #11 ) ;
#37 = ORIENTED_EDGE ( 'NONE', *, *, #125, .F. ) ;
#38 = CIRCLE ( 'NONE', #49, 0.7874015748031497600 ) ;
#39 = AXIS2_PLACEMENT_3D ( 'NONE', #110, #278, #78 ) ;
#40 = DIRECTION ( 'NONE',  ( 1.000000000000000000, -1.224646799147353200E-016, -2.249565377136128300E-032 ) ) ;
#41 = APPROVAL ( #155, 'UNSPECIFIED' ) ;
#42 =( LENGTH_UNIT ( ) NAMED_UNIT ( * ) SI_UNIT ( $, .METRE. ) );
#43 = CARTESIAN_POINT ( 'NONE',  ( 0.0000000000000000000, 9.642410481573937100E-017, -0.06717503127653888500 ) ) ;
#44 = AXIS2_PLACEMENT_3D ( 'NONE', #96, #62, #115 ) ;
#45 = CALENDAR_DATE ( 2018, 1, 6 ) ;
#46 = PRODUCT_DEFINITION ( 'UNKNOWN', '', #73, #105 ) ;
#47 = DIRECTION ( 'NONE',  ( -0.0000000000000000000, -1.836909530733566100E-016, 1.000000000000000000 ) ) ;
#48 = ORIENTED_EDGE ( 'NONE', *, *, #301, .T. ) ;
#49 = AXIS2_PLACEMENT_3D ( 'NONE', #227, #40, #149 ) ;
#50 = ORIENTED_EDGE ( 'NONE', *, *, #205, .F. ) ;
#51 = CARTESIAN_POINT ( 'NONE',  ( 0.0000000000000000000, -0.2500000000000000000, 0.05093520494393370700 ) ) ;
#52 = APPROVAL ( #328, 'UNSPECIFIED' ) ;
#53 = AXIS2_PLACEMENT_3D ( 'NONE', #303, #196, #280 ) ;
#54 = VECTOR ( 'NONE', #321, 39.37007874015748100 ) ;
#55 = CONICAL_SURFACE ( 'NONE', #240, 0.2500000000000000600, 0.7853981633974268500 ) ;
#56 = CC_DESIGN_PERSON_AND_ORGANIZATION_ASSIGNMENT ( #198, #274, ( #46 ) ) ;
#57 = APPROVAL_DATE_TIME ( #210, #41 ) ;
#58 = ORIENTED_EDGE ( 'NONE', *, *, #99, .T. ) ;
#59 = ORIENTED_EDGE ( 'NONE', *, *, #184, .F. ) ;
#60 = VERTEX_POINT ( 'NONE', #218 ) ;
#61 = CC_DESIGN_APPROVAL ( #41, ( #46 ) ) ;
#62 = DIRECTION ( 'NONE',  ( -0.0000000000000000000, -1.836909530733566100E-016, 1.000000000000000000 ) ) ;
#63 = LINE ( 'NONE', #273, #54 ) ;
#64 = FACE_OUTER_BOUND ( 'NONE', #87, .T. ) ;
#65 = ORIENTED_EDGE ( 'NONE', *, *, #3, .F. ) ;
#66 = DIRECTION ( 'NONE',  ( -1.224646799147353200E-016, -1.000000000000000000, 0.0000000000000000000 ) ) ;
#67 = DIRECTION ( 'NONE',  ( -0.0000000000000000000, -1.836909530733566100E-016, 1.000000000000000000 ) ) ;
#68 = EDGE_LOOP ( 'NONE', ( #69, #167, #304, #132 ) ) ;
#69 = ORIENTED_EDGE ( 'NONE', *, *, #125, .T. ) ;
#70 = SHAPE_DEFINITION_REPRESENTATION ( #297, #329 ) ;
#71 = DIRECTION ( 'NONE',  ( 0.0000000000000000000, -1.000000000000000000, -1.746296913827004800E-016 ) ) ;
#72 = DIRECTION ( 'NONE',  ( -0.0000000000000000000, -1.836909530733566100E-016, 1.000000000000000000 ) ) ;
#73 = PRODUCT_DEFINITION_FORMATION_WITH_SPECIFIED_SOURCE ( 'ANY', '', #144, .NOT_KNOWN. ) ;
#74 = LOCAL_TIME ( 14, 7, 29.00000000000000000, #226 ) ;
#75 = DIRECTION ( 'NONE',  ( -0.0000000000000000000, -1.836909530733566100E-016, 1.000000000000000000 ) ) ;
#76 = PERSON_AND_ORGANIZATION_ROLE ( 'design_supplier' ) ;
#77 = ORIENTED_EDGE ( 'NONE', *, *, #266, .T. ) ;
#78 = DIRECTION ( 'NONE',  ( 0.0000000000000000000, -1.000000000000000000, -1.920926605209705200E-016 ) ) ;
#79 = CARTESIAN_POINT ( 'NONE',  ( 0.0000000000000000000, 1.455014456949820400E-017, -0.02827470891441306200 ) ) ;
#80 = ORIENTED_EDGE ( 'NONE', *, *, #186, .T. ) ;
#81 = DATE_AND_TIME ( #164, #133 ) ;
#82 = DIRECTION ( 'NONE',  ( -0.0000000000000000000, -1.836909530733566100E-016, 1.000000000000000000 ) ) ;
#83 = VERTEX_POINT ( 'NONE', #101 ) ;
#84 = DIRECTION ( 'NONE',  ( 0.0000000000000000000, -1.000000000000000000, -1.878145495644180800E-016 ) ) ;
#85 = ADVANCED_FACE ( 'NONE', ( #326 ), #100, .F. ) ;
#86 = VERTEX_POINT ( 'NONE', #120 ) ;
#87 = EDGE_LOOP ( 'NONE', ( #127, #80, #37, #320 ) ) ;
#88 = AXIS2_PLACEMENT_3D ( 'NONE', #215, #299, #84 ) ;
#89 = DIRECTION ( 'NONE',  ( 0.0000000000000000000, -1.000000000000000000, -1.707404996040164500E-016 ) ) ;
#90 = APPROVAL_PERSON_ORGANIZATION ( #19, #121, #253 ) ;
#91 = MECHANICAL_CONTEXT ( 'NONE', #109, 'mechanical' ) ;
#92 = DIRECTION ( 'NONE',  ( -1.000000000000000000, 0.0000000000000000000, 0.0000000000000000000 ) ) ;
#93 = ORIENTED_EDGE ( 'NONE', *, *, #3, .T. ) ;
#94 = VERTEX_POINT ( 'NONE', #4 ) ;
#95 = DATE_TIME_ROLE ( 'classification_date' ) ;
#96 = CARTESIAN_POINT ( 'NONE',  ( 0.0000000000000000000, 0.0000000000000000000, 0.05093520494393374800 ) ) ;
#97 = APPROVAL_DATE_TIME ( #81, #121 ) ;
#98 = EDGE_CURVE ( 'NONE', #86, #207, #319, .T. ) ;
#99 = EDGE_CURVE ( 'NONE', #156, #241, #160, .T. ) ;
#100 = SPHERICAL_SURFACE ( 'NONE', #35, 1.932401574803149600 ) ;
#101 = CARTESIAN_POINT ( 'NONE',  ( 2.993431481629370200E-017, 0.2444322300693975700, -0.02827470891441301000 ) ) ;
#102 = SECURITY_CLASSIFICATION_LEVEL ( 'unclassified' ) ;
#103 = SPHERICAL_SURFACE ( 'NONE', #14, 0.7874015748031497600 ) ;
#104 = PERSON_AND_ORGANIZATION_ROLE ( 'creator' ) ;
#105 = DESIGN_CONTEXT ( 'detailed design', #209, 'design' ) ;
#106 = CIRCLE ( 'NONE', #126, 1.932401574803149600 ) ;
#107 = VERTEX_POINT ( 'NONE', #232 ) ;
#108 = FACE_OUTER_BOUND ( 'NONE', #151, .T. ) ;
#109 = APPLICATION_CONTEXT ( 'configuration controlled 3d designs of mechanical parts and assemblies' ) ;
#110 = CARTESIAN_POINT ( 'NONE',  ( 0.0000000000000000000, 1.455014456949820400E-017, -0.02827470891441306200 ) ) ;
#111 = AXIS2_PLACEMENT_3D ( 'NONE', #118, #75, #204 ) ;
#112 = DIRECTION ( 'NONE',  ( 0.0000000000000000000, -1.000000000000000000, -1.920926605209705200E-016 ) ) ;
#113 = VERTEX_POINT ( 'NONE', #262 ) ;
#114 = CARTESIAN_POINT ( 'NONE',  ( 0.0000000000000000000, -2.851182604684840000E-018, 0.06645683274857705500 ) ) ;
#115 = DIRECTION ( 'NONE',  ( 0.0000000000000000000, -1.000000000000000000, -1.707404996040164500E-016 ) ) ;
#116 = CIRCLE ( 'NONE', #39, 0.2444322300693974300 ) ;
#117 = ORIENTED_EDGE ( 'NONE', *, *, #266, .F. ) ;
#118 = CARTESIAN_POINT ( 'NONE',  ( 0.0000000000000000000, 1.352739560445257900E-017, -0.02270693898381015400 ) ) ;
#119 = PERSON ( 'UNSPECIFIED', 'UNSPECIFIED', 'UNSPECIFIED', ('UNSPECIFIED'), ('UNSPECIFIED'), ('UNSPECIFIED') ) ;
#120 = CARTESIAN_POINT ( 'NONE',  ( -2.993431481629360400E-017, -0.2444322300693962900, 0.06645683274857706900 ) ) ;
#121 = APPROVAL ( #199, 'UNSPECIFIED' ) ;
#122 = CALENDAR_DATE ( 2018, 1, 6 ) ;
#123 = LOCAL_TIME ( 14, 7, 29.00000000000000000, #248 ) ;
#124 = DIRECTION ( 'NONE',  ( 0.0000000000000000000, -1.000000000000000000, -1.734723475976806800E-016 ) ) ;
#125 = EDGE_CURVE ( 'NONE', #60, #107, #330, .T. ) ;
#126 = AXIS2_PLACEMENT_3D ( 'NONE', #139, #7, #66 ) ;
#127 = ORIENTED_EDGE ( 'NONE', *, *, #234, .T. ) ;
#128 = PERSON_AND_ORGANIZATION ( #119, #11 ) ;
#129 = VECTOR ( 'NONE', #237, 39.37007874015748100 ) ;
#130 = EDGE_LOOP ( 'NONE', ( #31, #298, #48, #177 ) ) ;
#131 = DIRECTION ( 'NONE',  ( -0.0000000000000000000, -1.836909530733566100E-016, 1.000000000000000000 ) ) ;
#132 = ORIENTED_EDGE ( 'NONE', *, *, #325, .F. ) ;
#133 = LOCAL_TIME ( 14, 7, 29.00000000000000000, #33 ) ;
#134 = PERSON_AND_ORGANIZATION_ROLE ( 'classification_officer' ) ;
#135 = LINE ( 'NONE', #51, #228 ) ;
#136 = ORIENTED_EDGE ( 'NONE', *, *, #244, .F. ) ;
#137 = CC_DESIGN_DATE_AND_TIME_ASSIGNMENT ( #221, #309, ( #46 ) ) ;
#138 = CARTESIAN_POINT ( 'NONE',  ( 0.0000000000000000000, 0.0000000000000000000, 1.983336779747082900 ) ) ;
#139 = CARTESIAN_POINT ( 'NONE',  ( 0.0000000000000000000, 0.0000000000000000000, 1.983336779747082900 ) ) ;
#140 = CONICAL_SURFACE ( 'NONE', #302, 0.2500000000000000600, 0.7853981633974268500 ) ;
#141 = AXIS2_PLACEMENT_3D ( 'NONE', #79, #47, #288 ) ;
#142 = ADVANCED_FACE ( 'NONE', ( #206 ), #285, .F. ) ;
#143 = CALENDAR_DATE ( 2018, 1, 6 ) ;
#144 = PRODUCT ( '21985-E0W', '21985-E0W', '', ( #91 ) ) ;
#145 =( CONVERSION_BASED_UNIT ( 'INCH', #267 ) LENGTH_UNIT ( ) NAMED_UNIT ( #185 ) );
#146 = ORIENTED_EDGE ( 'NONE', *, *, #195, .T. ) ;
#147 = FACE_OUTER_BOUND ( 'NONE', #130, .T. ) ;
#148 = APPLICATION_PROTOCOL_DEFINITION ( 'international standard', 'config_control_design', 1994, #209 ) ;
#149 = DIRECTION ( 'NONE',  ( 1.224646799147353200E-016, 1.000000000000000000, 0.0000000000000000000 ) ) ;
#150 = CARTESIAN_POINT ( 'NONE',  ( 0.0000000000000000000, 0.0000000000000000000, 0.0000000000000000000 ) ) ;
#151 = EDGE_LOOP ( 'NONE', ( #50, #294, #264, #163 ) ) ;
#152 = DATE_AND_TIME ( #122, #212 ) ;
#153 = CARTESIAN_POINT ( 'NONE',  ( 0.0000000000000000000, -1.828433639639226300E-018, 0.06088906281797421000 ) ) ;
#154 = CARTESIAN_POINT ( 'NONE',  ( 0.0000000000000000000, 0.0000000000000000000, 0.7202265435266108600 ) ) ;
#155 = APPROVAL_STATUS ( 'not_yet_approved' ) ;
#156 = VERTEX_POINT ( 'NONE', #43 ) ;
#157 =( NAMED_UNIT ( * ) SI_UNIT ( $, .STERADIAN. ) SOLID_ANGLE_UNIT ( ) );
#158 = CARTESIAN_POINT ( 'NONE',  ( 3.061616997868383000E-017, 0.2500000000000000000, 0.05093520494393379000 ) ) ;
#159 = SPHERICAL_SURFACE ( 'NONE', #243, 0.7874015748031497600 ) ;
#160 = CIRCLE ( 'NONE', #308, 0.7874015748031496500 ) ;
#161 = COORDINATED_UNIVERSAL_TIME_OFFSET ( 5, 0, .BEHIND. ) ;
#162 = APPROVAL_DATE_TIME ( #166, #52 ) ;
#163 = ORIENTED_EDGE ( 'NONE', *, *, #1, .F. ) ;
#164 = CALENDAR_DATE ( 2018, 1, 6 ) ;
#165 = DIRECTION ( 'NONE',  ( 1.000000000000000000, 0.0000000000000000000, 0.0000000000000000000 ) ) ;
#166 = DATE_AND_TIME ( #143, #284 ) ;
#167 = ORIENTED_EDGE ( 'NONE', *, *, #205, .T. ) ;
#168 = CIRCLE ( 'NONE', #22, 0.2444322300693974300 ) ;
#169 = DIRECTION ( 'NONE',  ( -0.0000000000000000000, -1.836909530733566100E-016, 1.000000000000000000 ) ) ;
#170 = DIRECTION ( 'NONE',  ( 1.000000000000000000, 0.0000000000000000000, 0.0000000000000000000 ) ) ;
#171 = DIRECTION ( 'NONE',  ( 0.0000000000000000000, 1.000000000000000000, 1.413706151601823300E-016 ) ) ;
#172 = EDGE_LOOP ( 'NONE', ( #21, #77, #317, #59 ) ) ;
#173 = PERSON_AND_ORGANIZATION ( #119, #11 ) ;
#174 = APPROVAL_ROLE ( '' ) ;
#175 = FACE_OUTER_BOUND ( 'NONE', #251, .T. ) ;
#176 = DIRECTION ( 'NONE',  ( 0.0000000000000000000, 0.0000000000000000000, 1.000000000000000000 ) ) ;
#177 = ORIENTED_EDGE ( 'NONE', *, *, #1, .T. ) ;
#178 = DIRECTION ( 'NONE',  ( 0.0000000000000000000, -1.000000000000000000, -1.746296913827004800E-016 ) ) ;
#179 = EDGE_CURVE ( 'NONE', #113, #16, #201, .T. ) ;
#180 = CARTESIAN_POINT ( 'NONE',  ( 0.0000000000000000000, -2.851182604684840000E-018, 0.06645683274857705500 ) ) ;
#181 = CIRCLE ( 'NONE', #53, 1.932401574803149600 ) ;
#182 = VECTOR ( 'NONE', #8, 39.37007874015748100 ) ;
#183 = CONICAL_SURFACE ( 'NONE', #197, 0.2444322300693974300, 0.7853981633974184100 ) ;
#184 = EDGE_CURVE ( 'NONE', #107, #60, #192, .T. ) ;
#185 = DIMENSIONAL_EXPONENTS ( 1.000000000000000000, 0.0000000000000000000, 0.0000000000000000000, 0.0000000000000000000, 0.0000000000000000000, 0.0000000000000000000, 0.0000000000000000000 ) ;
#186 = EDGE_CURVE ( 'NONE', #83, #107, #23, .T. ) ;
#187 = CC_DESIGN_SECURITY_CLASSIFICATION ( #310, ( #73 ) ) ;
#188 = DIRECTION ( 'NONE',  ( 0.0000000000000000000, 1.000000000000000000, 1.707404996040164000E-016 ) ) ;
#189 = FACE_OUTER_BOUND ( 'NONE', #245, .T. ) ;
#190 = ORIENTED_EDGE ( 'NONE', *, *, #99, .F. ) ;
#191 = PRODUCT_RELATED_PRODUCT_CATEGORY ( 'detail', '', ( #144 ) ) ;
#192 = CIRCLE ( 'NONE', #111, 0.2500000000000000000 ) ;
#193 = CYLINDRICAL_SURFACE ( 'NONE', #44, 0.2500000000000000000 ) ;
#194 = CONICAL_SURFACE ( 'NONE', #208, 0.2444322300693974300, 0.7853981633974184100 ) ;
#195 = EDGE_CURVE ( 'NONE', #94, #207, #181, .T. ) ;
#196 = DIRECTION ( 'NONE',  ( 1.000000000000000000, 0.0000000000000000000, 0.0000000000000000000 ) ) ;
#197 = AXIS2_PLACEMENT_3D ( 'NONE', #20, #131, #112 ) ;
#198 = PERSON_AND_ORGANIZATION ( #119, #11 ) ;
#199 = APPROVAL_STATUS ( 'not_yet_approved' ) ;
#200 = CARTESIAN_POINT ( 'NONE',  ( 0.0000000000000000000, 0.0000000000000000000, 1.983336779747082900 ) ) ;
#201 = CIRCLE ( 'NONE', #312, 0.2500000000000000600 ) ;
#202 = CC_DESIGN_APPROVAL ( #121, ( #73 ) ) ;
#203 = CARTESIAN_POINT ( 'NONE',  ( 0.0000000000000000000, -0.2444322300693973800, -0.02827470891441305500 ) ) ;
#204 = DIRECTION ( 'NONE',  ( 0.0000000000000000000, -1.000000000000000000, -1.878145495644180800E-016 ) ) ;
#205 = EDGE_CURVE ( 'NONE', #107, #16, #214, .T. ) ;
#206 = FACE_OUTER_BOUND ( 'NONE', #229, .T. ) ;
#207 = VERTEX_POINT ( 'NONE', #311 ) ;
#208 = AXIS2_PLACEMENT_3D ( 'NONE', #211, #268, #220 ) ;
#209 = APPLICATION_CONTEXT ( 'configuration controlled 3d designs of mechanical parts and assemblies' ) ;
#210 = DATE_AND_TIME ( #45, #123 ) ;
#211 = CARTESIAN_POINT ( 'NONE',  ( 0.0000000000000000000, 1.455014456949820400E-017, -0.02827470891441306200 ) ) ;
#212 = LOCAL_TIME ( 14, 7, 29.00000000000000000, #161 ) ;
#213 = EDGE_CURVE ( 'NONE', #241, #60, #63, .T. ) ;
#214 = LINE ( 'NONE', #158, #219 ) ;
#215 = CARTESIAN_POINT ( 'NONE',  ( 0.0000000000000000000, 1.352739560445257900E-017, -0.02270693898381015400 ) ) ;
#216 = APPROVAL_PERSON_ORGANIZATION ( #36, #52, #174 ) ;
#217 = DIRECTION ( 'NONE',  ( 0.0000000000000000000, 1.000000000000000000, 1.413706151601823300E-016 ) ) ;
#218 = CARTESIAN_POINT ( 'NONE',  ( 0.0000000000000000000, -0.2500000000000000000, -0.02270693898381019900 ) ) ;
#219 = VECTOR ( 'NONE', #305, 39.37007874015748100 ) ;
#220 = DIRECTION ( 'NONE',  ( 0.0000000000000000000, -1.000000000000000000, -1.920926605209705200E-016 ) ) ;
#221 = DATE_AND_TIME ( #291, #74 ) ;
#222 = ADVANCED_FACE ( 'NONE', ( #189 ), #103, .T. ) ;
#223 = DIRECTION ( 'NONE',  ( 0.0000000000000000000, 1.836909530733566100E-016, -1.000000000000000000 ) ) ;
#224 = FACE_OUTER_BOUND ( 'NONE', #68, .T. ) ;
#225 = AXIS2_PLACEMENT_3D ( 'NONE', #153, #72, #2 ) ;
#226 = COORDINATED_UNIVERSAL_TIME_OFFSET ( 5, 0, .BEHIND. ) ;
#227 = CARTESIAN_POINT ( 'NONE',  ( 0.0000000000000000000, 0.0000000000000000000, 0.7202265435266108600 ) ) ;
#228 = VECTOR ( 'NONE', #67, 39.37007874015748100 ) ;
#229 = EDGE_LOOP ( 'NONE', ( #65, #146, #238 ) ) ;
#230 = CARTESIAN_POINT ( 'NONE',  ( 0.0000000000000000000, -1.828433639639226300E-018, 0.06088906281797421000 ) ) ;
#231 = PERSON_AND_ORGANIZATION ( #119, #11 ) ;
#232 = CARTESIAN_POINT ( 'NONE',  ( 3.061616997868383000E-017, 0.2500000000000000000, -0.02270693898381010600 ) ) ;
#233 = DIRECTION ( 'NONE',  ( 0.0000000000000000000, 1.836909530733566100E-016, -1.000000000000000000 ) ) ;
#234 = EDGE_CURVE ( 'NONE', #241, #83, #263, .T. ) ;
#235 =( GEOMETRIC_REPRESENTATION_CONTEXT ( 3 ) GLOBAL_UNCERTAINTY_ASSIGNED_CONTEXT ( ( #247 ) ) GLOBAL_UNIT_ASSIGNED_CONTEXT ( ( #145, #13, #157 ) ) REPRESENTATION_CONTEXT ( 'NONE', 'WORKASPACE' ) );
#236 = ORIENTED_EDGE ( 'NONE', *, *, #98, .F. ) ;
#237 = DIRECTION ( 'NONE',  ( 8.659560562354746700E-017, -0.7071067811865322500, -0.7071067811865627800 ) ) ;
#238 = ORIENTED_EDGE ( 'NONE', *, *, #9, .T. ) ;
#239 = LINE ( 'NONE', #257, #26 ) ;
#240 = AXIS2_PLACEMENT_3D ( 'NONE', #258, #223, #188 ) ;
#241 = VERTEX_POINT ( 'NONE', #203 ) ;
#242 = CLOSED_SHELL ( 'NONE', ( #252, #25, #255, #324, #85, #142, #222, #6, #29, #256 ) ) ;
#243 = AXIS2_PLACEMENT_3D ( 'NONE', #249, #170, #283 ) ;
#244 = EDGE_CURVE ( 'NONE', #156, #83, #38, .T. ) ;
#245 = EDGE_LOOP ( 'NONE', ( #136, #58, #117 ) ) ;
#246 = AXIS2_PLACEMENT_3D ( 'NONE', #315, #169, #89 ) ;
#247 = UNCERTAINTY_MEASURE_WITH_UNIT (LENGTH_MEASURE( 1.000000000000000100E-005 ), #145, 'distance_accuracy_value', 'NONE');
#248 = COORDINATED_UNIVERSAL_TIME_OFFSET ( 5, 0, .BEHIND. ) ;
#249 = CARTESIAN_POINT ( 'NONE',  ( 0.0000000000000000000, 0.0000000000000000000, 0.7202265435266108600 ) ) ;
#250 = APPROVAL_PERSON_ORGANIZATION ( #270, #41, #269 ) ;
#251 = EDGE_LOOP ( 'NONE', ( #236, #275, #296, #293 ) ) ;
#252 = ADVANCED_FACE ( 'NONE', ( #175 ), #140, .T. ) ;
#253 = APPROVAL_ROLE ( '' ) ;
#254 = ORIENTED_EDGE ( 'NONE', *, *, #195, .F. ) ;
#255 = ADVANCED_FACE ( 'NONE', ( #64 ), #183, .T. ) ;
#256 = ADVANCED_FACE ( 'NONE', ( #147 ), #55, .T. ) ;
#257 = CARTESIAN_POINT ( 'NONE',  ( 0.0000000000000000000, 0.2500000000000000600, 0.06088906281797425200 ) ) ;
#258 = CARTESIAN_POINT ( 'NONE',  ( 0.0000000000000000000, -1.828433639639226300E-018, 0.06088906281797421000 ) ) ;
#259 = DIRECTION ( 'NONE',  ( -0.0000000000000000000, -1.836909530733566100E-016, 1.000000000000000000 ) ) ;
#260 = PERSON_AND_ORGANIZATION_ROLE ( 'design_owner' ) ;
#261 = EDGE_CURVE ( 'NONE', #86, #113, #307, .T. ) ;
#262 = CARTESIAN_POINT ( 'NONE',  ( 0.0000000000000000000, -0.2500000000000000600, 0.06088906281797416800 ) ) ;
#263 = CIRCLE ( 'NONE', #141, 0.2444322300693974300 ) ;
#264 = ORIENTED_EDGE ( 'NONE', *, *, #325, .T. ) ;
#265 = AXIS2_PLACEMENT_3D ( 'NONE', #150, #176, #318 ) ;
#266 = EDGE_CURVE ( 'NONE', #83, #241, #116, .T. ) ;
#267 = LENGTH_MEASURE_WITH_UNIT ( LENGTH_MEASURE( 0.02539999999999999900 ), #42 );
#268 = DIRECTION ( 'NONE',  ( -0.0000000000000000000, -1.836909530733566100E-016, 1.000000000000000000 ) ) ;
#269 = APPROVAL_ROLE ( '' ) ;
#270 = PERSON_AND_ORGANIZATION ( #119, #11 ) ;
#271 = APPLICATION_PROTOCOL_DEFINITION ( 'international standard', 'config_control_design', 1994, #109 ) ;
#272 = FACE_OUTER_BOUND ( 'NONE', #172, .T. ) ;
#273 = CARTESIAN_POINT ( 'NONE',  ( 0.0000000000000000000, -0.2444322300693974300, -0.02827470891441310700 ) ) ;
#274 = PERSON_AND_ORGANIZATION_ROLE ( 'creator' ) ;
#275 = ORIENTED_EDGE ( 'NONE', *, *, #261, .T. ) ;
#276 = ORIENTED_EDGE ( 'NONE', *, *, #244, .T. ) ;
#277 = MANIFOLD_SOLID_BREP ( '21985-001-1-solid1', #242 ) ;
#278 = DIRECTION ( 'NONE',  ( -0.0000000000000000000, -1.836909530733566100E-016, 1.000000000000000000 ) ) ;
#279 = PERSON_AND_ORGANIZATION ( #119, #11 ) ;
#280 = DIRECTION ( 'NONE',  ( 0.0000000000000000000, 0.0000000000000000000, -1.000000000000000000 ) ) ;
#281 = AXIS2_PLACEMENT_3D ( 'NONE', #138, #17, #171 ) ;
#282 = CC_DESIGN_PERSON_AND_ORGANIZATION_ASSIGNMENT ( #231, #260, ( #144 ) ) ;
#283 = DIRECTION ( 'NONE',  ( 0.0000000000000000000, -1.000000000000000000, -1.734723475976806800E-016 ) ) ;
#284 = LOCAL_TIME ( 14, 7, 29.00000000000000000, #10 ) ;
#285 = SPHERICAL_SURFACE ( 'NONE', #281, 1.932401574803149600 ) ;
#286 = FACE_OUTER_BOUND ( 'NONE', #292, .T. ) ;
#287 = DIRECTION ( 'NONE',  ( 0.0000000000000000000, 1.000000000000000000, 1.707404996040164000E-016 ) ) ;
#288 = DIRECTION ( 'NONE',  ( 0.0000000000000000000, -1.000000000000000000, -1.920926605209705200E-016 ) ) ;
#289 = CC_DESIGN_PERSON_AND_ORGANIZATION_ASSIGNMENT ( #279, #76, ( #73 ) ) ;
#290 = CARTESIAN_POINT ( 'NONE',  ( 0.0000000000000000000, -1.828433639639226300E-018, 0.06088906281797421000 ) ) ;
#291 = CALENDAR_DATE ( 2018, 1, 6 ) ;
#292 = EDGE_LOOP ( 'NONE', ( #190, #276, #313 ) ) ;
#293 = ORIENTED_EDGE ( 'NONE', *, *, #301, .F. ) ;
#294 = ORIENTED_EDGE ( 'NONE', *, *, #184, .T. ) ;
#295 = DIRECTION ( 'NONE',  ( -1.000000000000000000, 0.0000000000000000000, -0.0000000000000000000 ) ) ;
#296 = ORIENTED_EDGE ( 'NONE', *, *, #179, .T. ) ;
#297 = PRODUCT_DEFINITION_SHAPE ( 'NONE', 'NONE',  #46 ) ;
#298 = ORIENTED_EDGE ( 'NONE', *, *, #9, .F. ) ;
#299 = DIRECTION ( 'NONE',  ( -0.0000000000000000000, -1.836909530733566100E-016, 1.000000000000000000 ) ) ;
#300 = DIRECTION ( 'NONE',  ( 0.0000000000000000000, 0.0000000000000000000, 1.000000000000000000 ) ) ;
#301 = EDGE_CURVE ( 'NONE', #207, #16, #239, .T. ) ;
#302 = AXIS2_PLACEMENT_3D ( 'NONE', #290, #233, #287 ) ;
#303 = CARTESIAN_POINT ( 'NONE',  ( 0.0000000000000000000, 0.0000000000000000000, 1.983336779747082900 ) ) ;
#304 = ORIENTED_EDGE ( 'NONE', *, *, #179, .F. ) ;
#305 = DIRECTION ( 'NONE',  ( -0.0000000000000000000, -1.836909530733566100E-016, 1.000000000000000000 ) ) ;
#306 = CIRCLE ( 'NONE', #225, 0.2500000000000000600 ) ;
#307 = LINE ( 'NONE', #34, #129 ) ;
#308 = AXIS2_PLACEMENT_3D ( 'NONE', #327, #295, #300 ) ;
#309 = DATE_TIME_ROLE ( 'creation_date' ) ;
#310 = SECURITY_CLASSIFICATION ( '', '', #102 ) ;
#311 = CARTESIAN_POINT ( 'NONE',  ( 0.0000000000000000000, 0.2444322300693966300, 0.06645683274857711000 ) ) ;
#312 = AXIS2_PLACEMENT_3D ( 'NONE', #230, #12, #32 ) ;
#313 = ORIENTED_EDGE ( 'NONE', *, *, #234, .F. ) ;
#314 = CC_DESIGN_DATE_AND_TIME_ASSIGNMENT ( #152, #95, ( #310 ) ) ;
#315 = CARTESIAN_POINT ( 'NONE',  ( 0.0000000000000000000, 0.0000000000000000000, 0.05093520494393374800 ) ) ;
#316 = CC_DESIGN_APPROVAL ( #52, ( #310 ) ) ;
#317 = ORIENTED_EDGE ( 'NONE', *, *, #213, .T. ) ;
#318 = DIRECTION ( 'NONE',  ( 1.000000000000000000, 0.0000000000000000000, 0.0000000000000000000 ) ) ;
#319 = CIRCLE ( 'NONE', #24, 0.2444322300693974300 ) ;
#320 = ORIENTED_EDGE ( 'NONE', *, *, #213, .F. ) ;
#321 = DIRECTION ( 'NONE',  ( 0.0000000000000000000, -0.7071067811865264800, 0.7071067811865685600 ) ) ;
#322 = ORIENTED_EDGE ( 'NONE', *, *, #98, .T. ) ;
#323 = CARTESIAN_POINT ( 'NONE',  ( 3.061616997868383600E-017, 0.2500000000000000600, 0.06088906281797425200 ) ) ;
#324 = ADVANCED_FACE ( 'NONE', ( #286 ), #159, .T. ) ;
#325 = EDGE_CURVE ( 'NONE', #60, #113, #135, .T. ) ;
#326 = FACE_OUTER_BOUND ( 'NONE', #5, .T. ) ;
#327 = CARTESIAN_POINT ( 'NONE',  ( 0.0000000000000000000, 0.0000000000000000000, 0.7202265435266108600 ) ) ;
#328 = APPROVAL_STATUS ( 'not_yet_approved' ) ;
#329 = ADVANCED_BREP_SHAPE_REPRESENTATION ( '21985-E0W', ( #277, #265 ), #235 ) ;
#330 = CIRCLE ( 'NONE', #88, 0.2500000000000000000 ) ;
ENDSEC;
END-ISO-10303-21;
