ISO-10303-21;
HEADER;
FILE_DESCRIPTION (( 'STEP AP203' ),
    '1' );
FILE_NAME ('12649-E0W.STEP',
    '2019-07-16T13:04:40',
    ( '' ),
    ( '' ),
    'SwSTEP 2.0',
    'SolidWorks 2018',
    '' );
FILE_SCHEMA (( 'CONFIG_CONTROL_DESIGN' ));
ENDSEC;

DATA;
#1 = PERSON_AND_ORGANIZATION ( #118, #107 ) ;
#2 = DIRECTION ( 'NONE',  ( 0.0000000000000000000, -1.000000000000000000, -2.931400219767482281E-32 ) ) ;
#3 = DIRECTION ( 'NONE',  ( 0.0000000000000000000, 1.000000000000000000, 0.0000000000000000000 ) ) ;
#4 = CALENDAR_DATE ( 2019, 16, 7 ) ;
#5 =( NAMED_UNIT ( * ) SI_UNIT ( $, .STERADIAN. ) SOLID_ANGLE_UNIT ( ) );
#6 = FACE_OUTER_BOUND ( 'NONE', #259, .T. ) ;
#7 = DATE_TIME_ROLE ( 'creation_date' ) ;
#8 = DIRECTION ( 'NONE',  ( 0.7071067811865474617, 0.0000000000000000000, 0.7071067811865474617 ) ) ;
#9 = AXIS2_PLACEMENT_3D ( 'NONE', #120, #267, #139 ) ;
#10 = VECTOR ( 'NONE', #48, 1000.000000000000000 ) ;
#11 = CIRCLE ( 'NONE', #122, 25.00000000000000000 ) ;
#12 = PERSON_AND_ORGANIZATION ( #118, #107 ) ;
#13 = FACE_OUTER_BOUND ( 'NONE', #194, .T. ) ;
#14 = EDGE_LOOP ( 'NONE', ( #178, #266 ) ) ;
#15 = PERSON_AND_ORGANIZATION ( #118, #107 ) ;
#16 = EDGE_CURVE ( 'NONE', #80, #60, #101, .T. ) ;
#17 = CC_DESIGN_PERSON_AND_ORGANIZATION_ASSIGNMENT ( #212, #132, ( #82 ) ) ;
#18 = CARTESIAN_POINT ( 'NONE',  ( -3.061616997868375548E-15, -24.99999999999993605, 1.716348329844321396 ) ) ;
#19 = CONICAL_SURFACE ( 'NONE', #156, 25.00000000000000000, 0.7853981633974482790 ) ;
#20 = VECTOR ( 'NONE', #172, 1000.000000000000000 ) ;
#21 = DIRECTION ( 'NONE',  ( -0.7071067811865474617, 8.659560562354932858E-17, 0.7071067811865474617 ) ) ;
#22 = EDGE_LOOP ( 'NONE', ( #208, #201, #226 ) ) ;
#23 = ADVANCED_FACE ( 'NONE', ( #6 ), #119, .T. ) ;
#24 = CIRCLE ( 'NONE', #206, 200.0000000000000284 ) ;
#25 = ADVANCED_FACE ( 'NONE', ( #264 ), #169, .T. ) ;
#26 = DIRECTION ( 'NONE',  ( 1.000000000000000000, 0.0000000000000000000, 0.0000000000000000000 ) ) ;
#27 = EDGE_CURVE ( 'NONE', #60, #261, #164, .T. ) ;
#28 = FACE_OUTER_BOUND ( 'NONE', #121, .T. ) ;
#29 = CARTESIAN_POINT ( 'NONE',  ( 3.061616997868383043E-15, 25.00000000000000000, -3.034999999999982379 ) ) ;
#30 = CARTESIAN_POINT ( 'NONE',  ( 0.0000000000000000000, 6.034247808459765833E-16, -3.034999999999982379 ) ) ;
#31 = DIRECTION ( 'NONE',  ( -1.000000000000000000, 1.224646799147353207E-16, 3.589929896158094825E-48 ) ) ;
#32 = CARTESIAN_POINT ( 'NONE',  ( 0.0000000000000000000, 6.034247808459763861E-16, 3.285000000000000142 ) ) ;
#33 = ORIENTED_EDGE ( 'NONE', *, *, #85, .F. ) ;
#34 = DATE_TIME_ROLE ( 'classification_date' ) ;
#35 = APPLICATION_PROTOCOL_DEFINITION ( 'international standard', 'config_control_design', 1994, #110 ) ;
#36 = APPROVAL_ROLE ( '' ) ;
#37 = CARTESIAN_POINT ( 'NONE',  ( 0.0000000000000000000, 6.034247808459765833E-16, -3.034999999999982379 ) ) ;
#38 = APPROVAL ( #196, 'UNSPECIFIED' ) ;
#39 = CIRCLE ( 'NONE', #104, 25.00000000000000000 ) ;
#40 = AXIS2_PLACEMENT_3D ( 'NONE', #207, #248, #165 ) ;
#41 = AXIS2_PLACEMENT_3D ( 'NONE', #147, #255, #145 ) ;
#42 = ORIENTED_EDGE ( 'NONE', *, *, #49, .T. ) ;
#43 = AXIS2_PLACEMENT_3D ( 'NONE', #37, #177, #75 ) ;
#44 = DIRECTION ( 'NONE',  ( -0.0000000000000000000, -0.0000000000000000000, 1.000000000000000000 ) ) ;
#45 = VERTEX_POINT ( 'NONE', #83 ) ;
#46 = DIRECTION ( 'NONE',  ( 0.0000000000000000000, -1.000000000000000000, 0.0000000000000000000 ) ) ;
#47 = CARTESIAN_POINT ( 'NONE',  ( 0.0000000000000000000, 6.034247808459765833E-16, -3.285000000000000142 ) ) ;
#48 = DIRECTION ( 'NONE',  ( -0.0000000000000000000, -2.931400219767482281E-32, 1.000000000000000000 ) ) ;
#49 = EDGE_CURVE ( 'NONE', #55, #74, #231, .T. ) ;
#50 = DIRECTION ( 'NONE',  ( 0.0000000000000000000, -2.931400219767482281E-32, 1.000000000000000000 ) ) ;
#51 = APPROVAL_ROLE ( '' ) ;
#52 = DIRECTION ( 'NONE',  ( 0.0000000000000000000, -1.000000000000000000, 0.0000000000000000000 ) ) ;
#53 =( NAMED_UNIT ( * ) PLANE_ANGLE_UNIT ( ) SI_UNIT ( $, .RADIAN. ) );
#54 = MECHANICAL_CONTEXT ( 'NONE', #110, 'mechanical' ) ;
#55 = VERTEX_POINT ( 'NONE', #18 ) ;
#56 = DIRECTION ( 'NONE',  ( 0.0000000000000000000, 0.0000000000000000000, 1.000000000000000000 ) ) ;
#57 = CC_DESIGN_PERSON_AND_ORGANIZATION_ASSIGNMENT ( #96, #157, ( #246 ) ) ;
#58 = DATE_AND_TIME ( #4, #105 ) ;
#59 = AXIS2_PLACEMENT_3D ( 'NONE', #154, #240, #256 ) ;
#60 = VERTEX_POINT ( 'NONE', #186 ) ;
#61 = CIRCLE ( 'NONE', #59, 25.00000000000000000 ) ;
#62 = CC_DESIGN_DATE_AND_TIME_ASSIGNMENT ( #143, #7, ( #149 ) ) ;
#63 = APPROVAL_DATE_TIME ( #114, #214 ) ;
#64 = AXIS2_PLACEMENT_3D ( 'NONE', #30, #193, #26 ) ;
#65 = CARTESIAN_POINT ( 'NONE',  ( 0.0000000000000000000, -25.00000000000000000, 3.285000000000000142 ) ) ;
#66 = ORIENTED_EDGE ( 'NONE', *, *, #85, .T. ) ;
#67 = APPROVAL ( #257, 'UNSPECIFIED' ) ;
#68 = DIRECTION ( 'NONE',  ( 0.0000000000000000000, -1.000000000000000000, 0.0000000000000000000 ) ) ;
#69 = EDGE_CURVE ( 'NONE', #45, #55, #138, .T. ) ;
#70 = CARTESIAN_POINT ( 'NONE',  ( 3.061616997868383043E-15, 25.00000000000000000, 3.285000000000000142 ) ) ;
#71 = DIRECTION ( 'NONE',  ( -1.000000000000000000, 0.0000000000000000000, 0.0000000000000000000 ) ) ;
#72 = LOCAL_TIME ( 9, 4, 40.00000000000000000, #222 ) ;
#73 = PERSON_AND_ORGANIZATION_ROLE ( 'creator' ) ;
#74 = VERTEX_POINT ( 'NONE', #151 ) ;
#75 = DIRECTION ( 'NONE',  ( 1.000000000000000000, 0.0000000000000000000, 0.0000000000000000000 ) ) ;
#76 = PERSON_AND_ORGANIZATION_ROLE ( 'creator' ) ;
#77 = AXIS2_PLACEMENT_3D ( 'NONE', #251, #232, #46 ) ;
#78 = FACE_OUTER_BOUND ( 'NONE', #252, .T. ) ;
#79 = EDGE_CURVE ( 'NONE', #95, #261, #168, .T. ) ;
#80 = VERTEX_POINT ( 'NONE', #271 ) ;
#81 = SHAPE_DEFINITION_REPRESENTATION ( #161, #223 ) ;
#82 = PRODUCT_DEFINITION_FORMATION_WITH_SPECIFIED_SOURCE ( 'ANY', '', #246, .NOT_KNOWN. ) ;
#83 = CARTESIAN_POINT ( 'NONE',  ( 0.0000000000000000000, -25.00000000000000000, -3.034999999999982379 ) ) ;
#84 = DATE_AND_TIME ( #211, #263 ) ;
#85 = EDGE_CURVE ( 'NONE', #144, #55, #199, .T. ) ;
#86 = CLOSED_SHELL ( 'NONE', ( #23, #192, #124, #25, #190, #103, #150 ) ) ;
#87 = PERSON_AND_ORGANIZATION_ROLE ( 'classification_officer' ) ;
#88 = CARTESIAN_POINT ( 'NONE',  ( 0.0000000000000000000, 6.034247808459765833E-16, -3.285000000000000142 ) ) ;
#89 = ORIENTED_EDGE ( 'NONE', *, *, #79, .T. ) ;
#90 = CARTESIAN_POINT ( 'NONE',  ( 0.0000000000000000000, 0.0000000000000000000, 0.0000000000000000000 ) ) ;
#91 = CARTESIAN_POINT ( 'NONE',  ( -25.00000000000000000, 3.665041778714360020E-15, -3.034999999999982379 ) ) ;
#92 = COORDINATED_UNIVERSAL_TIME_OFFSET ( 5, 0, .BEHIND. ) ;
#93 = ORIENTED_EDGE ( 'NONE', *, *, #233, .F. ) ;
#94 = CC_DESIGN_SECURITY_CLASSIFICATION ( #136, ( #82 ) ) ;
#95 = VERTEX_POINT ( 'NONE', #29 ) ;
#96 = PERSON_AND_ORGANIZATION ( #118, #107 ) ;
#97 = CYLINDRICAL_SURFACE ( 'NONE', #41, 25.00000000000000000 ) ;
#98 = EDGE_CURVE ( 'NONE', #55, #144, #11, .T. ) ;
#99 = ORIENTED_EDGE ( 'NONE', *, *, #204, .F. ) ;
#100 = AXIS2_PLACEMENT_3D ( 'NONE', #88, #50, #2 ) ;
#101 = CIRCLE ( 'NONE', #9, 24.74999999999998224 ) ;
#102 = DIRECTION ( 'NONE',  ( 1.000000000000000000, 0.0000000000000000000, 0.0000000000000000000 ) ) ;
#103 = ADVANCED_FACE ( 'NONE', ( #203 ), #130, .F. ) ;
#104 = AXIS2_PLACEMENT_3D ( 'NONE', #126, #216, #128 ) ;
#105 = LOCAL_TIME ( 9, 4, 40.00000000000000000, #116 ) ;
#106 = ORIENTED_EDGE ( 'NONE', *, *, #27, .F. ) ;
#107 = ORGANIZATION ( 'UNSPECIFIED', 'UNSPECIFIED', '' ) ;
#108 = DIRECTION ( 'NONE',  ( -0.0000000000000000000, -2.931400219767482281E-32, 1.000000000000000000 ) ) ;
#109 = CARTESIAN_POINT ( 'NONE',  ( 0.0000000000000000000, 0.0000000000000000000, -196.7150000000000034 ) ) ;
#110 = APPLICATION_CONTEXT ( 'configuration controlled 3d designs of mechanical parts and assemblies' ) ;
#111 = ORIENTED_EDGE ( 'NONE', *, *, #224, .T. ) ;
#112 = AXIS2_PLACEMENT_3D ( 'NONE', #210, #44, #102 ) ;
#113 = CARTESIAN_POINT ( 'NONE',  ( 25.00000000000000000, 6.034247808459765833E-16, -3.034999999999982379 ) ) ;
#114 = DATE_AND_TIME ( #197, #171 ) ;
#115 = DESIGN_CONTEXT ( 'detailed design', #237, 'design' ) ;
#116 = COORDINATED_UNIVERSAL_TIME_OFFSET ( 5, 0, .BEHIND. ) ;
#117 = EDGE_CURVE ( 'NONE', #95, #144, #243, .T. ) ;
#118 = PERSON ( 'UNSPECIFIED', 'UNSPECIFIED', 'UNSPECIFIED', ('UNSPECIFIED'), ('UNSPECIFIED'), ('UNSPECIFIED') ) ;
#119 = CONICAL_SURFACE ( 'NONE', #112, 25.00000000000000000, 0.7853981633974482790 ) ;
#120 = CARTESIAN_POINT ( 'NONE',  ( 0.0000000000000000000, 6.034247808459765833E-16, -3.285000000000000142 ) ) ;
#121 = EDGE_LOOP ( 'NONE', ( #66, #42, #182 ) ) ;
#122 = AXIS2_PLACEMENT_3D ( 'NONE', #153, #108, #68 ) ;
#123 = CARTESIAN_POINT ( 'NONE',  ( 0.0000000000000000000, 6.034247808459765833E-16, -3.034999999999982379 ) ) ;
#124 = ADVANCED_FACE ( 'NONE', ( #28 ), #167, .T. ) ;
#125 = CC_DESIGN_APPROVAL ( #214, ( #82 ) ) ;
#126 = CARTESIAN_POINT ( 'NONE',  ( 0.0000000000000000000, 6.034247808459765833E-16, -3.034999999999982379 ) ) ;
#127 = CARTESIAN_POINT ( 'NONE',  ( 0.0000000000000000000, 0.0000000000000000000, -196.7150000000000034 ) ) ;
#128 = DIRECTION ( 'NONE',  ( 1.000000000000000000, 0.0000000000000000000, 0.0000000000000000000 ) ) ;
#129 = LOCAL_TIME ( 9, 4, 40.00000000000000000, #160 ) ;
#130 = PLANE ( 'NONE',  #100 ) ;
#131 = ORIENTED_EDGE ( 'NONE', *, *, #204, .T. ) ;
#132 = PERSON_AND_ORGANIZATION_ROLE ( 'design_supplier' ) ;
#133 = COORDINATED_UNIVERSAL_TIME_OFFSET ( 5, 0, .BEHIND. ) ;
#134 = AXIS2_PLACEMENT_3D ( 'NONE', #148, #71, #3 ) ;
#135 = VERTEX_POINT ( 'NONE', #253 ) ;
#136 = SECURITY_CLASSIFICATION ( '', '', #179 ) ;
#137 = FACE_OUTER_BOUND ( 'NONE', #238, .T. ) ;
#138 = LINE ( 'NONE', #65, #20 ) ;
#139 = DIRECTION ( 'NONE',  ( 0.0000000000000000000, -1.000000000000000000, 0.0000000000000000000 ) ) ;
#140 = ORIENTED_EDGE ( 'NONE', *, *, #233, .T. ) ;
#141 = AXIS2_PLACEMENT_3D ( 'NONE', #32, #176, #173 ) ;
#142 = APPROVAL_PERSON_ORGANIZATION ( #202, #38, #180 ) ;
#143 = DATE_AND_TIME ( #220, #72 ) ;
#144 = VERTEX_POINT ( 'NONE', #189 ) ;
#145 = DIRECTION ( 'NONE',  ( 0.0000000000000000000, -1.000000000000000000, 0.0000000000000000000 ) ) ;
#146 =( GEOMETRIC_REPRESENTATION_CONTEXT ( 3 ) GLOBAL_UNCERTAINTY_ASSIGNED_CONTEXT ( ( #187 ) ) GLOBAL_UNIT_ASSIGNED_CONTEXT ( ( #239, #53, #5 ) ) REPRESENTATION_CONTEXT ( 'NONE', 'WORKASPACE' ) );
#147 = CARTESIAN_POINT ( 'NONE',  ( 0.0000000000000000000, 6.034247808459763861E-16, 3.285000000000000142 ) ) ;
#148 = CARTESIAN_POINT ( 'NONE',  ( 0.0000000000000000000, 0.0000000000000000000, -196.7150000000000034 ) ) ;
#149 = PRODUCT_DEFINITION ( 'UNKNOWN', '', #82, #115 ) ;
#150 = ADVANCED_FACE ( 'NONE', ( #13 ), #19, .T. ) ;
#151 = CARTESIAN_POINT ( 'NONE',  ( 0.0000000000000000000, 1.224646799147352744E-14, 3.285000000000009912 ) ) ;
#152 = ORIENTED_EDGE ( 'NONE', *, *, #117, .T. ) ;
#153 = CARTESIAN_POINT ( 'NONE',  ( 0.0000000000000000000, 6.034247808459763861E-16, 1.716348329844318066 ) ) ;
#154 = CARTESIAN_POINT ( 'NONE',  ( 0.0000000000000000000, 6.034247808459765833E-16, -3.034999999999982379 ) ) ;
#155 = ORIENTED_EDGE ( 'NONE', *, *, #69, .T. ) ;
#156 = AXIS2_PLACEMENT_3D ( 'NONE', #123, #218, #236 ) ;
#157 = PERSON_AND_ORGANIZATION_ROLE ( 'design_owner' ) ;
#158 = PRODUCT_RELATED_PRODUCT_CATEGORY ( 'detail', '', ( #246 ) ) ;
#159 = ORIENTED_EDGE ( 'NONE', *, *, #27, .T. ) ;
#160 = COORDINATED_UNIVERSAL_TIME_OFFSET ( 5, 0, .BEHIND. ) ;
#161 = PRODUCT_DEFINITION_SHAPE ( 'NONE', 'NONE',  #149 ) ;
#162 = APPROVAL_PERSON_ORGANIZATION ( #242, #214, #36 ) ;
#163 = EDGE_CURVE ( 'NONE', #60, #80, #185, .T. ) ;
#164 = LINE ( 'NONE', #250, #229 ) ;
#165 = DIRECTION ( 'NONE',  ( 0.0000000000000000000, 1.000000000000000000, 0.0000000000000000000 ) ) ;
#166 = APPROVAL_DATE_TIME ( #268, #67 ) ;
#167 = SPHERICAL_SURFACE ( 'NONE', #134, 200.0000000000000000 ) ;
#168 = CIRCLE ( 'NONE', #64, 25.00000000000000000 ) ;
#169 = SPHERICAL_SURFACE ( 'NONE', #40, 200.0000000000000000 ) ;
#170 = DIRECTION ( 'NONE',  ( 0.0000000000000000000, 2.931400219767482281E-32, -1.000000000000000000 ) ) ;
#171 = LOCAL_TIME ( 9, 4, 40.00000000000000000, #92 ) ;
#172 = DIRECTION ( 'NONE',  ( -0.0000000000000000000, -2.931400219767482281E-32, 1.000000000000000000 ) ) ;
#173 = DIRECTION ( 'NONE',  ( 0.0000000000000000000, -1.000000000000000000, 0.0000000000000000000 ) ) ;
#174 = VECTOR ( 'NONE', #8, 1000.000000000000114 ) ;
#175 = DIRECTION ( 'NONE',  ( -1.224646799147353207E-16, -1.000000000000000000, 0.0000000000000000000 ) ) ;
#176 = DIRECTION ( 'NONE',  ( -0.0000000000000000000, -2.931400219767482281E-32, 1.000000000000000000 ) ) ;
#177 = DIRECTION ( 'NONE',  ( -0.0000000000000000000, -0.0000000000000000000, 1.000000000000000000 ) ) ;
#178 = ORIENTED_EDGE ( 'NONE', *, *, #16, .T. ) ;
#179 = SECURITY_CLASSIFICATION_LEVEL ( 'unclassified' ) ;
#180 = APPROVAL_ROLE ( '' ) ;
#181 = CC_DESIGN_PERSON_AND_ORGANIZATION_ASSIGNMENT ( #1, #87, ( #136 ) ) ;
#182 = ORIENTED_EDGE ( 'NONE', *, *, #260, .F. ) ;
#183 = AXIS2_PLACEMENT_3D ( 'NONE', #47, #170, #52 ) ;
#184 = CC_DESIGN_APPROVAL ( #67, ( #136 ) ) ;
#185 = CIRCLE ( 'NONE', #183, 24.74999999999998224 ) ;
#186 = CARTESIAN_POINT ( 'NONE',  ( -24.74999999999998224, 3.649733693725017338E-15, -3.285000000000000142 ) ) ;
#187 = UNCERTAINTY_MEASURE_WITH_UNIT (LENGTH_MEASURE( 1.000000000000000082E-05 ), #239, 'distance_accuracy_value', 'NONE');
#188 = LINE ( 'NONE', #113, #174 ) ;
#189 = CARTESIAN_POINT ( 'NONE',  ( 0.0000000000000000000, 24.99999999999993605, 1.716348329844321396 ) ) ;
#190 = ADVANCED_FACE ( 'NONE', ( #137 ), #217, .T. ) ;
#191 = CC_DESIGN_DATE_AND_TIME_ASSIGNMENT ( #58, #34, ( #136 ) ) ;
#192 = ADVANCED_FACE ( 'NONE', ( #78 ), #97, .T. ) ;
#193 = DIRECTION ( 'NONE',  ( -0.0000000000000000000, -0.0000000000000000000, 1.000000000000000000 ) ) ;
#194 = EDGE_LOOP ( 'NONE', ( #106, #213, #140, #99, #269 ) ) ;
#195 = APPROVAL_STATUS ( 'not_yet_approved' ) ;
#196 = APPROVAL_STATUS ( 'not_yet_approved' ) ;
#197 = CALENDAR_DATE ( 2019, 16, 7 ) ;
#198 = DIRECTION ( 'NONE',  ( 1.000000000000000000, 0.0000000000000000000, 0.0000000000000000000 ) ) ;
#199 = CIRCLE ( 'NONE', #77, 25.00000000000000000 ) ;
#200 = ORIENTED_EDGE ( 'NONE', *, *, #224, .F. ) ;
#201 = ORIENTED_EDGE ( 'NONE', *, *, #98, .T. ) ;
#202 = PERSON_AND_ORGANIZATION ( #118, #107 ) ;
#203 = FACE_OUTER_BOUND ( 'NONE', #14, .T. ) ;
#204 = EDGE_CURVE ( 'NONE', #45, #135, #39, .T. ) ;
#205 = CIRCLE ( 'NONE', #43, 25.00000000000000000 ) ;
#206 = AXIS2_PLACEMENT_3D ( 'NONE', #109, #219, #221 ) ;
#207 = CARTESIAN_POINT ( 'NONE',  ( 0.0000000000000000000, 0.0000000000000000000, -196.7150000000000034 ) ) ;
#208 = ORIENTED_EDGE ( 'NONE', *, *, #49, .F. ) ;
#209 = MANIFOLD_SOLID_BREP ( '12649-001-1-solid1', #86 ) ;
#210 = CARTESIAN_POINT ( 'NONE',  ( 0.0000000000000000000, 6.034247808459765833E-16, -3.034999999999982379 ) ) ;
#211 = CALENDAR_DATE ( 2019, 16, 7 ) ;
#212 = PERSON_AND_ORGANIZATION ( #118, #107 ) ;
#213 = ORIENTED_EDGE ( 'NONE', *, *, #16, .F. ) ;
#214 = APPROVAL ( #195, 'UNSPECIFIED' ) ;
#215 = APPROVAL_PERSON_ORGANIZATION ( #265, #67, #51 ) ;
#216 = DIRECTION ( 'NONE',  ( -0.0000000000000000000, -0.0000000000000000000, 1.000000000000000000 ) ) ;
#217 = CYLINDRICAL_SURFACE ( 'NONE', #141, 25.00000000000000000 ) ;
#218 = DIRECTION ( 'NONE',  ( -0.0000000000000000000, -0.0000000000000000000, 1.000000000000000000 ) ) ;
#219 = DIRECTION ( 'NONE',  ( 1.000000000000000000, -0.0000000000000000000, 0.0000000000000000000 ) ) ;
#220 = CALENDAR_DATE ( 2019, 16, 7 ) ;
#221 = DIRECTION ( 'NONE',  ( 0.0000000000000000000, 0.0000000000000000000, -1.000000000000000000 ) ) ;
#222 = COORDINATED_UNIVERSAL_TIME_OFFSET ( 5, 0, .BEHIND. ) ;
#223 = ADVANCED_BREP_SHAPE_REPRESENTATION ( '12649-E0W', ( #209, #270 ), #146 ) ;
#224 = EDGE_CURVE ( 'NONE', #135, #95, #61, .T. ) ;
#225 = ORIENTED_EDGE ( 'NONE', *, *, #227, .T. ) ;
#226 = ORIENTED_EDGE ( 'NONE', *, *, #260, .T. ) ;
#227 = EDGE_CURVE ( 'NONE', #261, #45, #205, .T. ) ;
#228 = APPROVAL_DATE_TIME ( #84, #38 ) ;
#229 = VECTOR ( 'NONE', #21, 1000.000000000000114 ) ;
#230 = ORIENTED_EDGE ( 'NONE', *, *, #69, .F. ) ;
#231 = CIRCLE ( 'NONE', #245, 200.0000000000000000 ) ;
#232 = DIRECTION ( 'NONE',  ( -0.0000000000000000000, -2.931400219767482281E-32, 1.000000000000000000 ) ) ;
#233 = EDGE_CURVE ( 'NONE', #80, #135, #188, .T. ) ;
#234 = CC_DESIGN_PERSON_AND_ORGANIZATION_ASSIGNMENT ( #15, #76, ( #149 ) ) ;
#235 = CALENDAR_DATE ( 2019, 16, 7 ) ;
#236 = DIRECTION ( 'NONE',  ( 1.000000000000000000, 0.0000000000000000000, 0.0000000000000000000 ) ) ;
#237 = APPLICATION_CONTEXT ( 'configuration controlled 3d designs of mechanical parts and assemblies' ) ;
#238 = EDGE_LOOP ( 'NONE', ( #241, #89, #225, #155, #33 ) ) ;
#239 =( LENGTH_UNIT ( ) NAMED_UNIT ( * ) SI_UNIT ( .MILLI., .METRE. ) );
#240 = DIRECTION ( 'NONE',  ( -0.0000000000000000000, -0.0000000000000000000, 1.000000000000000000 ) ) ;
#241 = ORIENTED_EDGE ( 'NONE', *, *, #117, .F. ) ;
#242 = PERSON_AND_ORGANIZATION ( #118, #107 ) ;
#243 = LINE ( 'NONE', #70, #10 ) ;
#244 = ORIENTED_EDGE ( 'NONE', *, *, #79, .F. ) ;
#245 = AXIS2_PLACEMENT_3D ( 'NONE', #127, #31, #175 ) ;
#246 = PRODUCT ( '12649-E0W', '12649-E0W', '', ( #54 ) ) ;
#247 = CC_DESIGN_APPROVAL ( #38, ( #149 ) ) ;
#248 = DIRECTION ( 'NONE',  ( -1.000000000000000000, 0.0000000000000000000, 0.0000000000000000000 ) ) ;
#249 = ORIENTED_EDGE ( 'NONE', *, *, #163, .F. ) ;
#250 = CARTESIAN_POINT ( 'NONE',  ( -25.00000000000000000, 3.665041778714360020E-15, -3.034999999999982379 ) ) ;
#251 = CARTESIAN_POINT ( 'NONE',  ( 0.0000000000000000000, 6.034247808459763861E-16, 1.716348329844318066 ) ) ;
#252 = EDGE_LOOP ( 'NONE', ( #131, #111, #152, #254, #230 ) ) ;
#253 = CARTESIAN_POINT ( 'NONE',  ( 25.00000000000000000, 6.034247808459765833E-16, -3.034999999999982379 ) ) ;
#254 = ORIENTED_EDGE ( 'NONE', *, *, #98, .F. ) ;
#255 = DIRECTION ( 'NONE',  ( -0.0000000000000000000, -2.931400219767482281E-32, 1.000000000000000000 ) ) ;
#256 = DIRECTION ( 'NONE',  ( 1.000000000000000000, 0.0000000000000000000, 0.0000000000000000000 ) ) ;
#257 = APPROVAL_STATUS ( 'not_yet_approved' ) ;
#258 = APPLICATION_PROTOCOL_DEFINITION ( 'international standard', 'config_control_design', 1994, #237 ) ;
#259 = EDGE_LOOP ( 'NONE', ( #249, #159, #244, #200, #93 ) ) ;
#260 = EDGE_CURVE ( 'NONE', #144, #74, #24, .T. ) ;
#261 = VERTEX_POINT ( 'NONE', #91 ) ;
#262 = CC_DESIGN_PERSON_AND_ORGANIZATION_ASSIGNMENT ( #12, #73, ( #82 ) ) ;
#263 = LOCAL_TIME ( 9, 4, 40.00000000000000000, #133 ) ;
#264 = FACE_OUTER_BOUND ( 'NONE', #22, .T. ) ;
#265 = PERSON_AND_ORGANIZATION ( #118, #107 ) ;
#266 = ORIENTED_EDGE ( 'NONE', *, *, #163, .T. ) ;
#267 = DIRECTION ( 'NONE',  ( 0.0000000000000000000, 2.931400219767482281E-32, -1.000000000000000000 ) ) ;
#268 = DATE_AND_TIME ( #235, #129 ) ;
#269 = ORIENTED_EDGE ( 'NONE', *, *, #227, .F. ) ;
#270 = AXIS2_PLACEMENT_3D ( 'NONE', #90, #56, #198 ) ;
#271 = CARTESIAN_POINT ( 'NONE',  ( 24.74999999999998224, 6.034247808459765833E-16, -3.285000000000000142 ) ) ;
ENDSEC;
END-ISO-10303-21;
