ISO-10303-21;
HEADER;
FILE_DESCRIPTION (( 'STEP AP203' ),
    '1' );
FILE_NAME ('Web Model 65926.STEP',
    '2017-01-31T19:32:25',
    ( '' ),
    ( '' ),
    'SwSTEP 2.0',
    'SolidWorks 2016',
    '' );
FILE_SCHEMA (( 'CONFIG_CONTROL_DESIGN' ));
ENDSEC;

DATA;
#1 = DIRECTION ( 'NONE',  ( 0.0000000000000000000, 0.0000000000000000000, 1.000000000000000000 ) ) ;
#2 = CIRCLE ( 'NONE', #74, 15.00000000000000000 ) ;
#3 = MANIFOLD_SOLID_BREP ( 'Extrude1', #167 ) ;
#4 = DIRECTION ( 'NONE',  ( -0.0000000000000000000, -0.0000000000000000000, -1.000000000000000000 ) ) ;
#5 = APPROVAL_PERSON_ORGANIZATION ( #41, #143, #107 ) ;
#6 = DATE_AND_TIME ( #22, #80 ) ;
#7 = EDGE_LOOP ( 'NONE', ( #12, #125 ) ) ;
#8 = LINE ( 'NONE', #18, #57 ) ;
#9 = CIRCLE ( 'NONE', #140, 15.00000000000000000 ) ;
#10 = DIRECTION ( 'NONE',  ( 1.000000000000000000, 0.0000000000000000000, -0.0000000000000000000 ) ) ;
#11 = PERSON_AND_ORGANIZATION_ROLE ( 'creator' ) ;
#12 = ORIENTED_EDGE ( 'NONE', *, *, #17, .T. ) ;
#13 = APPLICATION_PROTOCOL_DEFINITION ( 'international standard', 'config_control_design', 1994, #95 ) ;
#14 = FACE_OUTER_BOUND ( 'NONE', #119, .T. ) ;
#15 = AXIS2_PLACEMENT_3D ( 'NONE', #50, #1, #10 ) ;
#16 = PERSON_AND_ORGANIZATION ( #34, #144 ) ;
#17 = EDGE_CURVE ( 'NONE', #104, #115, #2, .T. ) ;
#18 = CARTESIAN_POINT ( 'NONE',  ( 15.00000000000000000, 1.836970198721029600E-015, 3.000000000000000000 ) ) ;
#19 = DIRECTION ( 'NONE',  ( 1.000000000000000000, 0.0000000000000000000, 0.0000000000000000000 ) ) ;
#20 = CIRCLE ( 'NONE', #166, 15.00000000000000000 ) ;
#21 = CC_DESIGN_DATE_AND_TIME_ASSIGNMENT ( #124, #37, ( #60 ) ) ;
#22 = CALENDAR_DATE ( 2017, 31, 1 ) ;
#23 = PERSON_AND_ORGANIZATION_ROLE ( 'design_owner' ) ;
#24 = APPROVAL ( #165, 'UNSPECIFIED' ) ;
#25 = PLANE ( 'NONE',  #122 ) ;
#26 = DATE_TIME_ROLE ( 'creation_date' ) ;
#27 = APPROVAL_DATE_TIME ( #135, #143 ) ;
#28 =( NAMED_UNIT ( * ) PLANE_ANGLE_UNIT ( ) SI_UNIT ( $, .RADIAN. ) );
#29 = CALENDAR_DATE ( 2017, 31, 1 ) ;
#30 = CARTESIAN_POINT ( 'NONE',  ( 15.00000000000000000, 1.836970198721029600E-015, 3.000000000000000000 ) ) ;
#31 = PRODUCT_DEFINITION_SHAPE ( 'NONE', 'NONE',  #77 ) ;
#32 = DIRECTION ( 'NONE',  ( -1.000000000000000000, 0.0000000000000000000, 0.0000000000000000000 ) ) ;
#33 = ORIENTED_EDGE ( 'NONE', *, *, #54, .F. ) ;
#34 = PERSON ( 'UNSPECIFIED', 'UNSPECIFIED', 'UNSPECIFIED', ('UNSPECIFIED'), ('UNSPECIFIED'), ('UNSPECIFIED') ) ;
#35 = APPROVAL_PERSON_ORGANIZATION ( #83, #24, #94 ) ;
#36 = CC_DESIGN_APPROVAL ( #143, ( #77 ) ) ;
#37 = DATE_TIME_ROLE ( 'classification_date' ) ;
#38 = CARTESIAN_POINT ( 'NONE',  ( 0.0000000000000000000, 0.0000000000000000000, 3.000000000000000000 ) ) ;
#39 = DIRECTION ( 'NONE',  ( 0.0000000000000000000, 0.0000000000000000000, 1.000000000000000000 ) ) ;
#40 = CC_DESIGN_APPROVAL ( #87, ( #60 ) ) ;
#41 = PERSON_AND_ORGANIZATION ( #34, #144 ) ;
#42 = CARTESIAN_POINT ( 'NONE',  ( 0.0000000000000000000, 0.0000000000000000000, 3.000000000000000000 ) ) ;
#43 = VECTOR ( 'NONE', #71, 1000.000000000000000 ) ;
#44 = EDGE_CURVE ( 'NONE', #104, #100, #69, .T. ) ;
#45 = CYLINDRICAL_SURFACE ( 'NONE', #147, 15.00000000000000000 ) ;
#46 = UNCERTAINTY_MEASURE_WITH_UNIT (LENGTH_MEASURE( 1.000000000000000100E-005 ), #153, 'distance_accuracy_value', 'NONE');
#47 = PERSON_AND_ORGANIZATION ( #34, #144 ) ;
#48 = ORIENTED_EDGE ( 'NONE', *, *, #44, .F. ) ;
#49 = PRODUCT_DEFINITION_FORMATION_WITH_SPECIFIED_SOURCE ( 'ANY', '', #88, .NOT_KNOWN. ) ;
#50 = CARTESIAN_POINT ( 'NONE',  ( 0.0000000000000000000, 0.0000000000000000000, 0.0000000000000000000 ) ) ;
#51 = APPROVAL_DATE_TIME ( #6, #24 ) ;
#52 = ADVANCED_BREP_SHAPE_REPRESENTATION ( 'Web Model 65926', ( #3, #174 ), #160 ) ;
#53 = APPLICATION_PROTOCOL_DEFINITION ( 'international standard', 'config_control_design', 1994, #134 ) ;
#54 = EDGE_CURVE ( 'NONE', #115, #116, #8, .T. ) ;
#55 = DESIGN_CONTEXT ( 'detailed design', #134, 'design' ) ;
#56 = CARTESIAN_POINT ( 'NONE',  ( 0.0000000000000000000, 0.0000000000000000000, 3.000000000000000000 ) ) ;
#57 = VECTOR ( 'NONE', #4, 1000.000000000000000 ) ;
#58 = LOCAL_TIME ( 14, 32, 25.00000000000000000, #89 ) ;
#59 = APPROVAL_ROLE ( '' ) ;
#60 = SECURITY_CLASSIFICATION ( '', '', #91 ) ;
#61 = DATE_AND_TIME ( #171, #98 ) ;
#62 = APPROVAL_STATUS ( 'not_yet_approved' ) ;
#63 = DIRECTION ( 'NONE',  ( 0.0000000000000000000, 0.0000000000000000000, 1.000000000000000000 ) ) ;
#64 = DIRECTION ( 'NONE',  ( -1.000000000000000000, 0.0000000000000000000, 0.0000000000000000000 ) ) ;
#65 = PERSON_AND_ORGANIZATION_ROLE ( 'creator' ) ;
#66 = COORDINATED_UNIVERSAL_TIME_OFFSET ( 5, 0, .BEHIND. ) ;
#67 = CC_DESIGN_PERSON_AND_ORGANIZATION_ASSIGNMENT ( #47, #161, ( #49 ) ) ;
#68 = DIRECTION ( 'NONE',  ( 1.000000000000000000, 0.0000000000000000000, -0.0000000000000000000 ) ) ;
#69 = LINE ( 'NONE', #127, #43 ) ;
#70 = ORIENTED_EDGE ( 'NONE', *, *, #110, .F. ) ;
#71 = DIRECTION ( 'NONE',  ( -0.0000000000000000000, -0.0000000000000000000, -1.000000000000000000 ) ) ;
#72 = CC_DESIGN_DATE_AND_TIME_ASSIGNMENT ( #61, #26, ( #77 ) ) ;
#73 = ORIENTED_EDGE ( 'NONE', *, *, #137, .F. ) ;
#74 = AXIS2_PLACEMENT_3D ( 'NONE', #170, #86, #19 ) ;
#75 = LOCAL_TIME ( 14, 32, 25.00000000000000000, #109 ) ;
#76 = CALENDAR_DATE ( 2017, 31, 1 ) ;
#77 = PRODUCT_DEFINITION ( 'UNKNOWN', '', #49, #55 ) ;
#78 = PERSON_AND_ORGANIZATION ( #34, #144 ) ;
#79 = DIRECTION ( 'NONE',  ( 0.0000000000000000000, 0.0000000000000000000, 1.000000000000000000 ) ) ;
#80 = LOCAL_TIME ( 14, 32, 25.00000000000000000, #97 ) ;
#81 =( NAMED_UNIT ( * ) SI_UNIT ( $, .STERADIAN. ) SOLID_ANGLE_UNIT ( ) );
#82 = FACE_OUTER_BOUND ( 'NONE', #172, .T. ) ;
#83 = PERSON_AND_ORGANIZATION ( #34, #144 ) ;
#84 = ORIENTED_EDGE ( 'NONE', *, *, #54, .T. ) ;
#85 = FACE_OUTER_BOUND ( 'NONE', #90, .T. ) ;
#86 = DIRECTION ( 'NONE',  ( 0.0000000000000000000, 0.0000000000000000000, 1.000000000000000000 ) ) ;
#87 = APPROVAL ( #62, 'UNSPECIFIED' ) ;
#88 = PRODUCT ( 'Web Model 65926', 'Web Model 65926', '', ( #121 ) ) ;
#89 = COORDINATED_UNIVERSAL_TIME_OFFSET ( 5, 0, .BEHIND. ) ;
#90 = EDGE_LOOP ( 'NONE', ( #33, #159, #131, #101 ) ) ;
#91 = SECURITY_CLASSIFICATION_LEVEL ( 'unclassified' ) ;
#92 = APPROVAL_PERSON_ORGANIZATION ( #130, #87, #59 ) ;
#93 = CARTESIAN_POINT ( 'NONE',  ( 0.0000000000000000000, 0.0000000000000000000, 0.0000000000000000000 ) ) ;
#94 = APPROVAL_ROLE ( '' ) ;
#95 = APPLICATION_CONTEXT ( 'configuration controlled 3d designs of mechanical parts and assemblies' ) ;
#96 = CC_DESIGN_APPROVAL ( #24, ( #49 ) ) ;
#97 = COORDINATED_UNIVERSAL_TIME_OFFSET ( 5, 0, .BEHIND. ) ;
#98 = LOCAL_TIME ( 14, 32, 25.00000000000000000, #66 ) ;
#99 = CC_DESIGN_PERSON_AND_ORGANIZATION_ASSIGNMENT ( #16, #11, ( #49 ) ) ;
#100 = VERTEX_POINT ( 'NONE', #112 ) ;
#101 = ORIENTED_EDGE ( 'NONE', *, *, #137, .T. ) ;
#102 = SHAPE_DEFINITION_REPRESENTATION ( #31, #52 ) ;
#103 = PERSON_AND_ORGANIZATION ( #34, #144 ) ;
#104 = VERTEX_POINT ( 'NONE', #128 ) ;
#105 = PERSON_AND_ORGANIZATION_ROLE ( 'classification_officer' ) ;
#106 = DIRECTION ( 'NONE',  ( 1.000000000000000000, 0.0000000000000000000, 0.0000000000000000000 ) ) ;
#107 = APPROVAL_ROLE ( '' ) ;
#108 = CC_DESIGN_PERSON_AND_ORGANIZATION_ASSIGNMENT ( #103, #65, ( #77 ) ) ;
#109 = COORDINATED_UNIVERSAL_TIME_OFFSET ( 5, 0, .BEHIND. ) ;
#110 = EDGE_CURVE ( 'NONE', #115, #104, #20, .T. ) ;
#111 = AXIS2_PLACEMENT_3D ( 'NONE', #42, #158, #32 ) ;
#112 = CARTESIAN_POINT ( 'NONE',  ( -15.00000000000000000, 0.0000000000000000000, 0.0000000000000000000 ) ) ;
#113 = CARTESIAN_POINT ( 'NONE',  ( 0.0000000000000000000, 0.0000000000000000000, 3.000000000000000000 ) ) ;
#114 = CC_DESIGN_PERSON_AND_ORGANIZATION_ASSIGNMENT ( #151, #105, ( #60 ) ) ;
#115 = VERTEX_POINT ( 'NONE', #30 ) ;
#116 = VERTEX_POINT ( 'NONE', #156 ) ;
#117 = DIRECTION ( 'NONE',  ( 0.0000000000000000000, 0.0000000000000000000, 1.000000000000000000 ) ) ;
#118 = AXIS2_PLACEMENT_3D ( 'NONE', #148, #117, #106 ) ;
#119 = EDGE_LOOP ( 'NONE', ( #70, #84, #129, #48 ) ) ;
#120 = CIRCLE ( 'NONE', #118, 15.00000000000000000 ) ;
#121 = MECHANICAL_CONTEXT ( 'NONE', #95, 'mechanical' ) ;
#122 = AXIS2_PLACEMENT_3D ( 'NONE', #56, #39, #68 ) ;
#123 = CYLINDRICAL_SURFACE ( 'NONE', #111, 15.00000000000000000 ) ;
#124 = DATE_AND_TIME ( #157, #168 ) ;
#125 = ORIENTED_EDGE ( 'NONE', *, *, #110, .T. ) ;
#126 = CC_DESIGN_SECURITY_CLASSIFICATION ( #60, ( #49 ) ) ;
#127 = CARTESIAN_POINT ( 'NONE',  ( -15.00000000000000000, 0.0000000000000000000, 3.000000000000000000 ) ) ;
#128 = CARTESIAN_POINT ( 'NONE',  ( -15.00000000000000000, 0.0000000000000000000, 3.000000000000000000 ) ) ;
#129 = ORIENTED_EDGE ( 'NONE', *, *, #152, .T. ) ;
#130 = PERSON_AND_ORGANIZATION ( #34, #144 ) ;
#131 = ORIENTED_EDGE ( 'NONE', *, *, #44, .T. ) ;
#132 = DIRECTION ( 'NONE',  ( -0.0000000000000000000, -0.0000000000000000000, -1.000000000000000000 ) ) ;
#133 = ADVANCED_FACE ( 'NONE', ( #14 ), #123, .T. ) ;
#134 = APPLICATION_CONTEXT ( 'configuration controlled 3d designs of mechanical parts and assemblies' ) ;
#135 = DATE_AND_TIME ( #29, #75 ) ;
#136 = PRODUCT_RELATED_PRODUCT_CATEGORY ( 'detail', '', ( #88 ) ) ;
#137 = EDGE_CURVE ( 'NONE', #100, #116, #120, .T. ) ;
#138 = DIRECTION ( 'NONE',  ( 1.000000000000000000, 0.0000000000000000000, 0.0000000000000000000 ) ) ;
#139 = APPROVAL_DATE_TIME ( #175, #87 ) ;
#140 = AXIS2_PLACEMENT_3D ( 'NONE', #145, #79, #138 ) ;
#141 = DIRECTION ( 'NONE',  ( 1.000000000000000000, 0.0000000000000000000, 0.0000000000000000000 ) ) ;
#142 = DIRECTION ( 'NONE',  ( 0.0000000000000000000, 0.0000000000000000000, 1.000000000000000000 ) ) ;
#143 = APPROVAL ( #149, 'UNSPECIFIED' ) ;
#144 = ORGANIZATION ( 'UNSPECIFIED', 'UNSPECIFIED', '' ) ;
#145 = CARTESIAN_POINT ( 'NONE',  ( 0.0000000000000000000, 0.0000000000000000000, 0.0000000000000000000 ) ) ;
#146 = ADVANCED_FACE ( 'NONE', ( #85 ), #45, .T. ) ;
#147 = AXIS2_PLACEMENT_3D ( 'NONE', #38, #132, #64 ) ;
#148 = CARTESIAN_POINT ( 'NONE',  ( 0.0000000000000000000, 0.0000000000000000000, 0.0000000000000000000 ) ) ;
#149 = APPROVAL_STATUS ( 'not_yet_approved' ) ;
#150 = ADVANCED_FACE ( 'NONE', ( #82 ), #162, .F. ) ;
#151 = PERSON_AND_ORGANIZATION ( #34, #144 ) ;
#152 = EDGE_CURVE ( 'NONE', #116, #100, #9, .T. ) ;
#153 =( LENGTH_UNIT ( ) NAMED_UNIT ( * ) SI_UNIT ( .MILLI., .METRE. ) );
#154 = CC_DESIGN_PERSON_AND_ORGANIZATION_ASSIGNMENT ( #78, #23, ( #88 ) ) ;
#155 = FACE_OUTER_BOUND ( 'NONE', #7, .T. ) ;
#156 = CARTESIAN_POINT ( 'NONE',  ( 15.00000000000000000, 1.836970198721029600E-015, 0.0000000000000000000 ) ) ;
#157 = CALENDAR_DATE ( 2017, 31, 1 ) ;
#158 = DIRECTION ( 'NONE',  ( -0.0000000000000000000, -0.0000000000000000000, -1.000000000000000000 ) ) ;
#159 = ORIENTED_EDGE ( 'NONE', *, *, #17, .F. ) ;
#160 =( GEOMETRIC_REPRESENTATION_CONTEXT ( 3 ) GLOBAL_UNCERTAINTY_ASSIGNED_CONTEXT ( ( #46 ) ) GLOBAL_UNIT_ASSIGNED_CONTEXT ( ( #153, #28, #81 ) ) REPRESENTATION_CONTEXT ( 'NONE', 'WORKASPACE' ) );
#161 = PERSON_AND_ORGANIZATION_ROLE ( 'design_supplier' ) ;
#162 = PLANE ( 'NONE',  #15 ) ;
#163 = COORDINATED_UNIVERSAL_TIME_OFFSET ( 5, 0, .BEHIND. ) ;
#164 = DIRECTION ( 'NONE',  ( 1.000000000000000000, 0.0000000000000000000, 0.0000000000000000000 ) ) ;
#165 = APPROVAL_STATUS ( 'not_yet_approved' ) ;
#166 = AXIS2_PLACEMENT_3D ( 'NONE', #113, #142, #141 ) ;
#167 = CLOSED_SHELL ( 'NONE', ( #133, #146, #169, #150 ) ) ;
#168 = LOCAL_TIME ( 14, 32, 25.00000000000000000, #163 ) ;
#169 = ADVANCED_FACE ( 'NONE', ( #155 ), #25, .T. ) ;
#170 = CARTESIAN_POINT ( 'NONE',  ( 0.0000000000000000000, 0.0000000000000000000, 3.000000000000000000 ) ) ;
#171 = CALENDAR_DATE ( 2017, 31, 1 ) ;
#172 = EDGE_LOOP ( 'NONE', ( #73, #173 ) ) ;
#173 = ORIENTED_EDGE ( 'NONE', *, *, #152, .F. ) ;
#174 = AXIS2_PLACEMENT_3D ( 'NONE', #93, #63, #164 ) ;
#175 = DATE_AND_TIME ( #76, #58 ) ;
ENDSEC;
END-ISO-10303-21;
