ISO-10303-21;
HEADER;
FILE_DESCRIPTION (( 'STEP AP214' ),
    '1' );
FILE_NAME ('4775-E0W.STEP',
    '2009-12-21T17:04:23',
    ( ' ' ),
    ( ' ' ),
    'SwSTEP 2.0',
    'SolidWorks 2009',
    '' );
FILE_SCHEMA (( 'AUTOMOTIVE_DESIGN' ));
ENDSEC;

DATA;
#1 =( NAMED_UNIT ( * ) SI_UNIT ( $, .STERADIAN. ) SOLID_ANGLE_UNIT ( ) );
#2 =( NAMED_UNIT ( * ) PLANE_ANGLE_UNIT ( ) SI_UNIT ( $, .RADIAN. ) );
#3 =( LENGTH_UNIT ( ) NAMED_UNIT ( * ) SI_UNIT ( .MILLI., .METRE. ) );
#4 = ADVANCED_FACE ( 'NONE', ( #53 ), #150, .F. ) ;
#5 = EDGE_LOOP ( 'NONE', ( #40, #61, #49, #15 ) ) ;
#6 = EDGE_CURVE ( 'NONE', #66, #59, #145, .T. ) ;
#7 = EDGE_CURVE ( 'NONE', #58, #63, #110, .T. ) ;
#8 = EDGE_CURVE ( 'NONE', #47, #59, #98, .T. ) ;
#9 = EDGE_CURVE ( 'NONE', #56, #66, #138, .T. ) ;
#10 = ORIENTED_EDGE ( 'NONE', *, *, #60, .F. ) ;
#11 = ORIENTED_EDGE ( 'NONE', *, *, #12, .F. ) ;
#12 = EDGE_CURVE ( 'NONE', #63, #51, #101, .T. ) ;
#13 = ORIENTED_EDGE ( 'NONE', *, *, #8, .T. ) ;
#14 = ADVANCED_FACE ( 'NONE', ( #146 ), #68, .F. ) ;
#15 = ORIENTED_EDGE ( 'NONE', *, *, #6, .T. ) ;
#16 =( NAMED_UNIT ( * ) SI_UNIT ( $, .STERADIAN. ) SOLID_ANGLE_UNIT ( ) );
#17 =( NAMED_UNIT ( * ) PLANE_ANGLE_UNIT ( ) SI_UNIT ( $, .RADIAN. ) );
#18 =( LENGTH_UNIT ( ) NAMED_UNIT ( * ) SI_UNIT ( .MILLI., .METRE. ) );
#19 = MECHANICAL_DESIGN_GEOMETRIC_PRESENTATION_REPRESENTATION (  '', ( #21 ), #108 ) ;
#20 = PRESENTATION_LAYER_ASSIGNMENT (  '', '', ( #21 ) ) ;
#21 = STYLED_ITEM ( 'NONE', ( #22 ), #4 ) ;
#22 = PRESENTATION_STYLE_ASSIGNMENT (( #23 ) ) ;
#23 = SURFACE_STYLE_USAGE ( .BOTH. , #24 ) ;
#24 = SURFACE_SIDE_STYLE ('',( #25 ) ) ;
#25 = SURFACE_STYLE_FILL_AREA ( #26 ) ;
#26 = FILL_AREA_STYLE ('',( #52 ) ) ;
#27 = COLOUR_RGB ( '',0.9568627450980391500, 0.9490196078431372100, 0.9607843137254902200 ) ;
#28 = ADVANCED_FACE ( 'NONE', ( #121 ), #141, .F. ) ;
#29 = ORIENTED_EDGE ( 'NONE', *, *, #33, .T. ) ;
#30 = ORIENTED_EDGE ( 'NONE', *, *, #33, .F. ) ;
#31 = EDGE_LOOP ( 'NONE', ( #32, #29, #45, #42, #34 ) ) ;
#32 = ORIENTED_EDGE ( 'NONE', *, *, #9, .F. ) ;
#33 = EDGE_CURVE ( 'NONE', #56, #58, #126, .T. ) ;
#34 = ORIENTED_EDGE ( 'NONE', *, *, #6, .F. ) ;
#35 = MANIFOLD_SOLID_BREP ( 'NONE', #44 ) ;
#36 = EDGE_LOOP ( 'NONE', ( #54, #57, #41, #11, #62 ) ) ;
#37 = ADVANCED_FACE ( 'NONE', ( #165 ), #159, .T. ) ;
#38 = ORIENTED_EDGE ( 'NONE', *, *, #55, .F. ) ;
#39 = EDGE_LOOP ( 'NONE', ( #38, #30 ) ) ;
#40 = ORIENTED_EDGE ( 'NONE', *, *, #8, .F. ) ;
#41 = ORIENTED_EDGE ( 'NONE', *, *, #50, .F. ) ;
#42 = ORIENTED_EDGE ( 'NONE', *, *, #65, .F. ) ;
#43 = ADVANCED_FACE ( 'NONE', ( #161 ), #175, .T. ) ;
#44 = CLOSED_SHELL ( 'NONE', ( #37, #14, #4, #28, #43 ) ) ;
#45 = ORIENTED_EDGE ( 'NONE', *, *, #7, .T. ) ;
#46 = ORIENTED_EDGE ( 'NONE', *, *, #12, .T. ) ;
#47 = VERTEX_POINT ( 'NONE', #182 ) ;
#48 = ORIENTED_EDGE ( 'NONE', *, *, #65, .T. ) ;
#49 = ORIENTED_EDGE ( 'NONE', *, *, #50, .T. ) ;
#50 = EDGE_CURVE ( 'NONE', #51, #66, #201, .T. ) ;
#51 = VERTEX_POINT ( 'NONE', #196 ) ;
#52 = FILL_AREA_STYLE_COLOUR ( '', #27 ) ;
#53 = FACE_OUTER_BOUND ( 'NONE', #5, .T. ) ;
#54 = ORIENTED_EDGE ( 'NONE', *, *, #55, .T. ) ;
#55 = EDGE_CURVE ( 'NONE', #58, #56, #187, .T. ) ;
#56 = VERTEX_POINT ( 'NONE', #188 ) ;
#57 = ORIENTED_EDGE ( 'NONE', *, *, #9, .T. ) ;
#58 = VERTEX_POINT ( 'NONE', #213 ) ;
#59 = VERTEX_POINT ( 'NONE', #212 ) ;
#60 = EDGE_CURVE ( 'NONE', #47, #51, #211, .T. ) ;
#61 = ORIENTED_EDGE ( 'NONE', *, *, #60, .T. ) ;
#62 = ORIENTED_EDGE ( 'NONE', *, *, #7, .F. ) ;
#63 = VERTEX_POINT ( 'NONE', #206 ) ;
#64 = EDGE_LOOP ( 'NONE', ( #10, #13, #48, #46 ) ) ;
#65 = EDGE_CURVE ( 'NONE', #59, #63, #227, .T. ) ;
#66 = VERTEX_POINT ( 'NONE', #234 ) ;
#67 =( NAMED_UNIT ( * ) PLANE_ANGLE_UNIT ( ) SI_UNIT ( $, .RADIAN. ) );
#68 = SPHERICAL_SURFACE ( 'NONE', #119, 12.35000000000000000 ) ;
#69 = SURFACE_SIDE_STYLE ('',( #70 ) ) ;
#70 = SURFACE_STYLE_FILL_AREA ( #71 ) ;
#71 = FILL_AREA_STYLE ('',( #72 ) ) ;
#72 = FILL_AREA_STYLE_COLOUR ( '', #102 ) ;
#73 = MECHANICAL_DESIGN_GEOMETRIC_PRESENTATION_REPRESENTATION (  '', ( #75 ), #163 ) ;
#74 = PRESENTATION_LAYER_ASSIGNMENT (  '', '', ( #75 ) ) ;
#75 = STYLED_ITEM ( 'NONE', ( #76 ), #35 ) ;
#76 = PRESENTATION_STYLE_ASSIGNMENT (( #77 ) ) ;
#77 = SURFACE_STYLE_USAGE ( .BOTH. , #78 ) ;
#78 = SURFACE_SIDE_STYLE ('',( #79 ) ) ;
#79 = SURFACE_STYLE_FILL_AREA ( #80 ) ;
#80 = FILL_AREA_STYLE ('',( #81 ) ) ;
#81 = FILL_AREA_STYLE_COLOUR ( '', #127 ) ;
#82 = DIRECTION ( 'NONE',  ( 1.000000000000000000, 0.0000000000000000000, 0.0000000000000000000 ) ) ;
#83 =( NAMED_UNIT ( * ) PLANE_ANGLE_UNIT ( ) SI_UNIT ( $, .RADIAN. ) );
#84 = UNCERTAINTY_MEASURE_WITH_UNIT (LENGTH_MEASURE( 1.000000000000000100E-005 ), #139, 'distance_accuracy_value', 'NONE');
#85 =( NAMED_UNIT ( * ) SI_UNIT ( $, .STERADIAN. ) SOLID_ANGLE_UNIT ( ) );
#86 = AXIS2_PLACEMENT_3D ( 'NONE', #144, #143, #142 ) ;
#87 = UNCERTAINTY_MEASURE_WITH_UNIT (LENGTH_MEASURE( 1.000000000000000100E-005 ), #18, 'distance_accuracy_value', 'NONE');
#88 = PRESENTATION_LAYER_ASSIGNMENT (  '', '', ( #89 ) ) ;
#89 = STYLED_ITEM ( 'NONE', ( #90 ), #14 ) ;
#90 = PRESENTATION_STYLE_ASSIGNMENT (( #91 ) ) ;
#91 = SURFACE_STYLE_USAGE ( .BOTH. , #69 ) ;
#92 = DIRECTION ( 'NONE',  ( -0.0000000000000000000, -0.0000000000000000000, 1.000000000000000000 ) ) ;
#93 = VECTOR ( 'NONE', #92, 1000.000000000000000 ) ;
#94 = CARTESIAN_POINT ( 'NONE',  ( 2.999999999999999100, 0.0000000000000000000, 8.832197093307417600 ) ) ;
#95 = CARTESIAN_POINT ( 'NONE',  ( 0.0000000000000000000, 0.0000000000000000000, 13.16504382287809300 ) ) ;
#96 = DIRECTION ( 'NONE',  ( -1.000000000000000000, 1.224606353822377300E-016, 0.0000000000000000000 ) ) ;
#97 = AXIS2_PLACEMENT_3D ( 'NONE', #95, #96, #153 ) ;
#98 = CIRCLE ( 'NONE', #97, 12.35000000000000000 ) ;
#99 =( GEOMETRIC_REPRESENTATION_CONTEXT ( 3 ) GLOBAL_UNCERTAINTY_ASSIGNED_CONTEXT ( ( #111 ) ) GLOBAL_UNIT_ASSIGNED_CONTEXT ( ( #132, #83, #112 ) ) REPRESENTATION_CONTEXT ( 'NONE', 'WORKASPACE' ) );
#100 = AXIS2_PLACEMENT_3D ( 'NONE', #149, #148, #147 ) ;
#101 = CIRCLE ( 'NONE', #100, 2.999999999999999100 ) ;
#102 = COLOUR_RGB ( '',0.9568627450980391500, 0.9490196078431372100, 0.9607843137254902200 ) ;
#103 = SURFACE_STYLE_FILL_AREA ( #104 ) ;
#104 = FILL_AREA_STYLE ('',( #105 ) ) ;
#105 = FILL_AREA_STYLE_COLOUR ( '', #120 ) ;
#106 = DIRECTION ( 'NONE',  ( 0.0000000000000000000, 1.000000000000000000, 0.0000000000000000000 ) ) ;
#107 = DIRECTION ( 'NONE',  ( -1.000000000000000000, 0.0000000000000000000, 0.0000000000000000000 ) ) ;
#108 =( GEOMETRIC_REPRESENTATION_CONTEXT ( 3 ) GLOBAL_UNCERTAINTY_ASSIGNED_CONTEXT ( ( #87 ) ) GLOBAL_UNIT_ASSIGNED_CONTEXT ( ( #18, #17, #16 ) ) REPRESENTATION_CONTEXT ( 'NONE', 'WORKASPACE' ) );
#109 = CARTESIAN_POINT ( 'NONE',  ( 0.0000000000000000000, 0.0000000000000000000, 13.16504382287809300 ) ) ;
#110 = LINE ( 'NONE', #94, #93 ) ;
#111 = UNCERTAINTY_MEASURE_WITH_UNIT (LENGTH_MEASURE( 1.000000000000000100E-005 ), #132, 'distance_accuracy_value', 'NONE');
#112 =( NAMED_UNIT ( * ) SI_UNIT ( $, .STERADIAN. ) SOLID_ANGLE_UNIT ( ) );
#113 = PRESENTATION_LAYER_ASSIGNMENT (  '', '', ( #114 ) ) ;
#114 = STYLED_ITEM ( 'NONE', ( #115 ), #28 ) ;
#115 = PRESENTATION_STYLE_ASSIGNMENT (( #116 ) ) ;
#116 = SURFACE_STYLE_USAGE ( .BOTH. , #117 ) ;
#117 = SURFACE_SIDE_STYLE ('',( #103 ) ) ;
#118 = CARTESIAN_POINT ( 'NONE',  ( 0.0000000000000000000, 0.0000000000000000000, 13.16504382287809300 ) ) ;
#119 = AXIS2_PLACEMENT_3D ( 'NONE', #118, #107, #106 ) ;
#120 = COLOUR_RGB ( '',0.9568627450980391500, 0.9490196078431372100, 0.9607843137254902200 ) ;
#121 = FACE_OUTER_BOUND ( 'NONE', #39, .T. ) ;
#122 =( GEOMETRIC_REPRESENTATION_CONTEXT ( 3 ) GLOBAL_UNCERTAINTY_ASSIGNED_CONTEXT ( ( #84 ) ) GLOBAL_UNIT_ASSIGNED_CONTEXT ( ( #139, #67, #85 ) ) REPRESENTATION_CONTEXT ( 'NONE', 'WORKASPACE' ) );
#123 = DIRECTION ( 'NONE',  ( -0.0000000000000000000, -0.0000000000000000000, 1.000000000000000000 ) ) ;
#124 = CARTESIAN_POINT ( 'NONE',  ( 0.0000000000000000000, 0.0000000000000000000, -1.184956177121908800 ) ) ;
#125 = AXIS2_PLACEMENT_3D ( 'NONE', #124, #123, #82 ) ;
#126 = CIRCLE ( 'NONE', #125, 2.999999999999999100 ) ;
#127 = COLOUR_RGB ( '',0.7960784313725489700, 0.8235294117647058400, 0.9372549019607843100 ) ;
#128 = DIRECTION ( 'NONE',  ( 1.000000000000000000, 0.0000000000000000000, 0.0000000000000000000 ) ) ;
#129 = DIRECTION ( 'NONE',  ( 0.0000000000000000000, -0.0000000000000000000, 1.000000000000000000 ) ) ;
#130 = CARTESIAN_POINT ( 'NONE',  ( 0.0000000000000000000, 3.673940397442059900E-016, -1.184956177121907900 ) ) ;
#131 = AXIS2_PLACEMENT_3D ( 'NONE', #130, #129, #128 ) ;
#132 =( LENGTH_UNIT ( ) NAMED_UNIT ( * ) SI_UNIT ( .MILLI., .METRE. ) );
#133 = MECHANICAL_DESIGN_GEOMETRIC_PRESENTATION_REPRESENTATION (  '', ( #114 ), #99 ) ;
#134 = AXIS2_PLACEMENT_3D ( 'NONE', #109, #151, #152 ) ;
#135 = DIRECTION ( 'NONE',  ( -0.0000000000000000000, -0.0000000000000000000, 1.000000000000000000 ) ) ;
#136 = VECTOR ( 'NONE', #135, 1000.000000000000000 ) ;
#137 = CARTESIAN_POINT ( 'NONE',  ( -2.999999999999999100, 3.673819061467130800E-016, 8.832197093307417600 ) ) ;
#138 = LINE ( 'NONE', #137, #136 ) ;
#139 =( LENGTH_UNIT ( ) NAMED_UNIT ( * ) SI_UNIT ( .MILLI., .METRE. ) );
#140 = MECHANICAL_DESIGN_GEOMETRIC_PRESENTATION_REPRESENTATION (  '', ( #89 ), #122 ) ;
#141 = PLANE ( 'NONE',  #131 ) ;
#142 = DIRECTION ( 'NONE',  ( 1.000000000000000000, 0.0000000000000000000, 0.0000000000000000000 ) ) ;
#143 = DIRECTION ( 'NONE',  ( -0.0000000000000000000, -0.0000000000000000000, 1.000000000000000000 ) ) ;
#144 = CARTESIAN_POINT ( 'NONE',  ( 0.0000000000000000000, 0.0000000000000000000, 1.184956177121908800 ) ) ;
#145 = CIRCLE ( 'NONE', #86, 2.999999999999999100 ) ;
#146 = FACE_OUTER_BOUND ( 'NONE', #64, .T. ) ;
#147 = DIRECTION ( 'NONE',  ( 1.000000000000000000, 0.0000000000000000000, 0.0000000000000000000 ) ) ;
#148 = DIRECTION ( 'NONE',  ( -0.0000000000000000000, -0.0000000000000000000, 1.000000000000000000 ) ) ;
#149 = CARTESIAN_POINT ( 'NONE',  ( 0.0000000000000000000, 0.0000000000000000000, 1.184956177121908800 ) ) ;
#150 = SPHERICAL_SURFACE ( 'NONE', #134, 12.35000000000000000 ) ;
#151 = DIRECTION ( 'NONE',  ( -1.000000000000000000, 0.0000000000000000000, 0.0000000000000000000 ) ) ;
#152 = DIRECTION ( 'NONE',  ( 0.0000000000000000000, 1.000000000000000000, 0.0000000000000000000 ) ) ;
#153 = DIRECTION ( 'NONE',  ( -1.224606353822377300E-016, -1.000000000000000000, 0.0000000000000000000 ) ) ;
#154 =( LENGTH_UNIT ( ) NAMED_UNIT ( * ) SI_UNIT ( .MILLI., .METRE. ) );
#155 =( NAMED_UNIT ( * ) PLANE_ANGLE_UNIT ( ) SI_UNIT ( $, .RADIAN. ) );
#156 = DIRECTION ( 'NONE',  ( 1.000000000000000000, 0.0000000000000000000, 0.0000000000000000000 ) ) ;
#157 = MECHANICAL_DESIGN_GEOMETRIC_PRESENTATION_REPRESENTATION (  '', ( #176 ), #189 ) ;
#158 = AXIS2_PLACEMENT_3D ( 'NONE', #203, #202, #170 ) ;
#159 = CYLINDRICAL_SURFACE ( 'NONE', #158, 2.999999999999999100 ) ;
#160 = COLOUR_RGB ( '',0.9568627450980391500, 0.9490196078431372100, 0.9607843137254902200 ) ;
#161 = FACE_OUTER_BOUND ( 'NONE', #31, .T. ) ;
#162 = SURFACE_STYLE_FILL_AREA ( #204 ) ;
#163 =( GEOMETRIC_REPRESENTATION_CONTEXT ( 3 ) GLOBAL_UNCERTAINTY_ASSIGNED_CONTEXT ( ( #173 ) ) GLOBAL_UNIT_ASSIGNED_CONTEXT ( ( #3, #2, #1 ) ) REPRESENTATION_CONTEXT ( 'NONE', 'WORKASPACE' ) );
#164 = FILL_AREA_STYLE_COLOUR ( '', #205 ) ;
#165 = FACE_OUTER_BOUND ( 'NONE', #36, .T. ) ;
#166 = SURFACE_SIDE_STYLE ('',( #167 ) ) ;
#167 = SURFACE_STYLE_FILL_AREA ( #168 ) ;
#168 = FILL_AREA_STYLE ('',( #169 ) ) ;
#169 = FILL_AREA_STYLE_COLOUR ( '', #160 ) ;
#170 = DIRECTION ( 'NONE',  ( 1.000000000000000000, 0.0000000000000000000, 0.0000000000000000000 ) ) ;
#171 = UNCERTAINTY_MEASURE_WITH_UNIT (LENGTH_MEASURE( 1.000000000000000100E-005 ), #154, 'distance_accuracy_value', 'NONE');
#172 =( GEOMETRIC_REPRESENTATION_CONTEXT ( 3 ) GLOBAL_UNCERTAINTY_ASSIGNED_CONTEXT ( ( #215 ) ) GLOBAL_UNIT_ASSIGNED_CONTEXT ( ( #218, #214, #216 ) ) REPRESENTATION_CONTEXT ( 'NONE', 'WORKASPACE' ) );
#173 = UNCERTAINTY_MEASURE_WITH_UNIT (LENGTH_MEASURE( 1.000000000000000100E-005 ), #3, 'distance_accuracy_value', 'NONE');
#174 = CARTESIAN_POINT ( 'NONE',  ( 0.0000000000000000000, 0.0000000000000000000, 8.832197093307417600 ) ) ;
#175 = CYLINDRICAL_SURFACE ( 'NONE', #181, 2.999999999999999100 ) ;
#176 = STYLED_ITEM ( 'NONE', ( #179 ), #37 ) ;
#177 = PRESENTATION_LAYER_ASSIGNMENT (  '', '', ( #176 ) ) ;
#178 = SURFACE_STYLE_USAGE ( .BOTH. , #195 ) ;
#179 = PRESENTATION_STYLE_ASSIGNMENT (( #178 ) ) ;
#180 = DIRECTION ( 'NONE',  ( -0.0000000000000000000, -0.0000000000000000000, 1.000000000000000000 ) ) ;
#181 = AXIS2_PLACEMENT_3D ( 'NONE', #174, #180, #156 ) ;
#182 = CARTESIAN_POINT ( 'NONE',  ( 0.0000000000000000000, 7.561944234853180000E-016, 0.8150438228780934000 ) ) ;
#183 = DIRECTION ( 'NONE',  ( 1.000000000000000000, 0.0000000000000000000, 0.0000000000000000000 ) ) ;
#184 = DIRECTION ( 'NONE',  ( -0.0000000000000000000, -0.0000000000000000000, 1.000000000000000000 ) ) ;
#185 = CARTESIAN_POINT ( 'NONE',  ( 0.0000000000000000000, 0.0000000000000000000, -1.184956177121908800 ) ) ;
#186 = AXIS2_PLACEMENT_3D ( 'NONE', #185, #184, #183 ) ;
#187 = CIRCLE ( 'NONE', #186, 2.999999999999999100 ) ;
#188 = CARTESIAN_POINT ( 'NONE',  ( -2.999999999999999100, 3.673819061467130800E-016, -1.184956177121908800 ) ) ;
#189 =( GEOMETRIC_REPRESENTATION_CONTEXT ( 3 ) GLOBAL_UNCERTAINTY_ASSIGNED_CONTEXT ( ( #171 ) ) GLOBAL_UNIT_ASSIGNED_CONTEXT ( ( #154, #155, #217 ) ) REPRESENTATION_CONTEXT ( 'NONE', 'WORKASPACE' ) );
#190 = MECHANICAL_DESIGN_GEOMETRIC_PRESENTATION_REPRESENTATION (  '', ( #192 ), #172 ) ;
#191 = PRESENTATION_LAYER_ASSIGNMENT (  '', '', ( #192 ) ) ;
#192 = STYLED_ITEM ( 'NONE', ( #193 ), #43 ) ;
#193 = PRESENTATION_STYLE_ASSIGNMENT (( #194 ) ) ;
#194 = SURFACE_STYLE_USAGE ( .BOTH. , #166 ) ;
#195 = SURFACE_SIDE_STYLE ('',( #162 ) ) ;
#196 = CARTESIAN_POINT ( 'NONE',  ( 0.0000000000000000000, 3.000000000000001800, 1.184956177121908600 ) ) ;
#197 = DIRECTION ( 'NONE',  ( 1.000000000000000000, 0.0000000000000000000, 0.0000000000000000000 ) ) ;
#198 = DIRECTION ( 'NONE',  ( -0.0000000000000000000, -0.0000000000000000000, 1.000000000000000000 ) ) ;
#199 = CARTESIAN_POINT ( 'NONE',  ( 0.0000000000000000000, 0.0000000000000000000, 1.184956177121908800 ) ) ;
#200 = AXIS2_PLACEMENT_3D ( 'NONE', #199, #198, #197 ) ;
#201 = CIRCLE ( 'NONE', #200, 2.999999999999999100 ) ;
#202 = DIRECTION ( 'NONE',  ( -0.0000000000000000000, -0.0000000000000000000, 1.000000000000000000 ) ) ;
#203 = CARTESIAN_POINT ( 'NONE',  ( 0.0000000000000000000, 0.0000000000000000000, 8.832197093307417600 ) ) ;
#204 = FILL_AREA_STYLE ('',( #164 ) ) ;
#205 = COLOUR_RGB ( '',0.9568627450980391500, 0.9490196078431372100, 0.9607843137254902200 ) ;
#206 = CARTESIAN_POINT ( 'NONE',  ( 2.999999999999999100, 0.0000000000000000000, 1.184956177121908800 ) ) ;
#207 = DIRECTION ( 'NONE',  ( 0.0000000000000000000, 0.0000000000000000000, -1.000000000000000000 ) ) ;
#208 = DIRECTION ( 'NONE',  ( 1.000000000000000000, 0.0000000000000000000, 0.0000000000000000000 ) ) ;
#209 = CARTESIAN_POINT ( 'NONE',  ( 0.0000000000000000000, 0.0000000000000000000, 13.16504382287809300 ) ) ;
#210 = AXIS2_PLACEMENT_3D ( 'NONE', #209, #208, #207 ) ;
#211 = CIRCLE ( 'NONE', #210, 12.35000000000000000 ) ;
#212 = CARTESIAN_POINT ( 'NONE',  ( -3.673819061467134200E-016, -3.000000000000001800, 1.184956177121908600 ) ) ;
#213 = CARTESIAN_POINT ( 'NONE',  ( 2.999999999999999100, 0.0000000000000000000, -1.184956177121908800 ) ) ;
#214 =( NAMED_UNIT ( * ) PLANE_ANGLE_UNIT ( ) SI_UNIT ( $, .RADIAN. ) );
#215 = UNCERTAINTY_MEASURE_WITH_UNIT (LENGTH_MEASURE( 1.000000000000000100E-005 ), #218, 'distance_accuracy_value', 'NONE');
#216 =( NAMED_UNIT ( * ) SI_UNIT ( $, .STERADIAN. ) SOLID_ANGLE_UNIT ( ) );
#217 =( NAMED_UNIT ( * ) SI_UNIT ( $, .STERADIAN. ) SOLID_ANGLE_UNIT ( ) );
#218 =( LENGTH_UNIT ( ) NAMED_UNIT ( * ) SI_UNIT ( .MILLI., .METRE. ) );
#219 = UNCERTAINTY_MEASURE_WITH_UNIT (LENGTH_MEASURE( 1.000000000000000100E-005 ), #249, 'distance_accuracy_value', 'NONE');
#220 =( NAMED_UNIT ( * ) SI_UNIT ( $, .STERADIAN. ) SOLID_ANGLE_UNIT ( ) );
#221 = CARTESIAN_POINT ( 'NONE',  ( 0.0000000000000000000, 0.0000000000000000000, 1.184956177121908800 ) ) ;
#222 = DIRECTION ( 'NONE',  ( -0.0000000000000000000, -0.0000000000000000000, 1.000000000000000000 ) ) ;
#223 = FILL_AREA_STYLE ('',( #224 ) ) ;
#224 = FILL_AREA_STYLE_COLOUR ( '', #225 ) ;
#225 = COLOUR_RGB ( '',0.7960784313725489700, 0.8235294117647058400, 0.9372549019607843100 ) ;
#226 = APPLICATION_CONTEXT ( 'automotive_design' ) ;
#227 = CIRCLE ( 'NONE', #233, 2.999999999999999100 ) ;
#228 = PRESENTATION_STYLE_ASSIGNMENT (( #229 ) ) ;
#229 = SURFACE_STYLE_USAGE ( .BOTH. , #230 ) ;
#230 = SURFACE_SIDE_STYLE ('',( #231 ) ) ;
#231 = SURFACE_STYLE_FILL_AREA ( #223 ) ;
#232 =( GEOMETRIC_REPRESENTATION_CONTEXT ( 3 ) GLOBAL_UNCERTAINTY_ASSIGNED_CONTEXT ( ( #239 ) ) GLOBAL_UNIT_ASSIGNED_CONTEXT ( ( #240, #254, #235 ) ) REPRESENTATION_CONTEXT ( 'NONE', 'WORKASPACE' ) );
#233 = AXIS2_PLACEMENT_3D ( 'NONE', #221, #222, #251 ) ;
#234 = CARTESIAN_POINT ( 'NONE',  ( -2.999999999999999100, 3.673819061467130800E-016, 1.184956177121908800 ) ) ;
#235 =( NAMED_UNIT ( * ) SI_UNIT ( $, .STERADIAN. ) SOLID_ANGLE_UNIT ( ) );
#236 =( NAMED_UNIT ( * ) PLANE_ANGLE_UNIT ( ) SI_UNIT ( $, .RADIAN. ) );
#237 = APPLICATION_PROTOCOL_DEFINITION ( 'draft international standard', 'automotive_design', 1998, #226 ) ;
#238 = DIRECTION ( 'NONE',  ( 0.0000000000000000000, 0.0000000000000000000, 1.000000000000000000 ) ) ;
#239 = UNCERTAINTY_MEASURE_WITH_UNIT (LENGTH_MEASURE( 1.000000000000000100E-005 ), #240, 'distance_accuracy_value', 'NONE');
#240 =( LENGTH_UNIT ( ) NAMED_UNIT ( * ) SI_UNIT ( .MILLI., .METRE. ) );
#241 = PRODUCT_DEFINITION ( 'UNKNOWN', '', #259, #242 ) ;
#242 = PRODUCT_DEFINITION_CONTEXT ( 'detailed design', #244, 'design' ) ;
#243 = APPLICATION_PROTOCOL_DEFINITION ( 'draft international standard', 'automotive_design', 1998, #244 ) ;
#244 = APPLICATION_CONTEXT ( 'automotive_design' ) ;
#245 = SHAPE_DEFINITION_REPRESENTATION ( #257, #248 ) ;
#246 = PRODUCT ( '4775-E0W', '4775-E0W', '', ( #247 ) ) ;
#247 = PRODUCT_CONTEXT ( 'NONE', #226, 'mechanical' ) ;
#248 = ADVANCED_BREP_SHAPE_REPRESENTATION ( '4775-E0W', ( #35, #253 ), #232 ) ;
#249 =( LENGTH_UNIT ( ) NAMED_UNIT ( * ) SI_UNIT ( .MILLI., .METRE. ) );
#250 = MECHANICAL_DESIGN_GEOMETRIC_PRESENTATION_REPRESENTATION (  '', ( #256 ), #261 ) ;
#251 = DIRECTION ( 'NONE',  ( 1.000000000000000000, 0.0000000000000000000, 0.0000000000000000000 ) ) ;
#252 = DIRECTION ( 'NONE',  ( 1.000000000000000000, 0.0000000000000000000, 0.0000000000000000000 ) ) ;
#253 = AXIS2_PLACEMENT_3D ( 'NONE', #260, #238, #252 ) ;
#254 =( NAMED_UNIT ( * ) PLANE_ANGLE_UNIT ( ) SI_UNIT ( $, .RADIAN. ) );
#255 = PRESENTATION_LAYER_ASSIGNMENT (  '', '', ( #256 ) ) ;
#256 = STYLED_ITEM ( 'NONE', ( #228 ), #248 ) ;
#257 = PRODUCT_DEFINITION_SHAPE ( 'NONE', 'NONE',  #241 ) ;
#258 = PRODUCT_RELATED_PRODUCT_CATEGORY ( 'part', '', ( #246 ) ) ;
#259 = PRODUCT_DEFINITION_FORMATION_WITH_SPECIFIED_SOURCE ( 'ANY', '', #246, .NOT_KNOWN. ) ;
#260 = CARTESIAN_POINT ( 'NONE',  ( 0.0000000000000000000, 0.0000000000000000000, 0.0000000000000000000 ) ) ;
#261 =( GEOMETRIC_REPRESENTATION_CONTEXT ( 3 ) GLOBAL_UNCERTAINTY_ASSIGNED_CONTEXT ( ( #219 ) ) GLOBAL_UNIT_ASSIGNED_CONTEXT ( ( #249, #236, #220 ) ) REPRESENTATION_CONTEXT ( 'NONE', 'WORKASPACE' ) );
ENDSEC;
END-ISO-10303-21;
