ISO-10303-21;
HEADER;
FILE_DESCRIPTION (( 'STEP AP214' ),
    '1' );
FILE_NAME ('4475-E0W.STEP',
    '2009-12-21T17:05:55',
    ( ' ' ),
    ( ' ' ),
    'SwSTEP 2.0',
    'SolidWorks 2009',
    '' );
FILE_SCHEMA (( 'AUTOMOTIVE_DESIGN' ));
ENDSEC;

DATA;
#1 = MECHANICAL_DESIGN_GEOMETRIC_PRESENTATION_REPRESENTATION (  '', ( #7 ), #161 ) ;
#2 = SURFACE_SIDE_STYLE ('',( #69 ) ) ;
#3 = SURFACE_STYLE_USAGE ( .BOTH. , #2 ) ;
#4 =( NAMED_UNIT ( * ) PLANE_ANGLE_UNIT ( ) SI_UNIT ( $, .RADIAN. ) );
#5 =( LENGTH_UNIT ( ) NAMED_UNIT ( * ) SI_UNIT ( .MILLI., .METRE. ) );
#6 = PRESENTATION_STYLE_ASSIGNMENT (( #3 ) ) ;
#7 = STYLED_ITEM ( 'NONE', ( #6 ), #38 ) ;
#8 = PRESENTATION_LAYER_ASSIGNMENT (  '', '', ( #7 ) ) ;
#9 = ORIENTED_EDGE ( 'NONE', *, *, #43, .F. ) ;
#10 = EDGE_CURVE ( 'NONE', #17, #11, #26, .T. ) ;
#11 = VERTEX_POINT ( 'NONE', #105 ) ;
#12 = ADVANCED_FACE ( 'NONE', ( #147 ), #91, .T. ) ;
#13 = ORIENTED_EDGE ( 'NONE', *, *, #33, .T. ) ;
#14 = VERTEX_POINT ( 'NONE', #88 ) ;
#15 = EDGE_LOOP ( 'NONE', ( #32, #28 ) ) ;
#16 = ORIENTED_EDGE ( 'NONE', *, *, #47, .F. ) ;
#17 = VERTEX_POINT ( 'NONE', #87 ) ;
#18 = VERTEX_POINT ( 'NONE', #92 ) ;
#19 = ADVANCED_FACE ( 'NONE', ( #86 ), #81, .T. ) ;
#20 = ORIENTED_EDGE ( 'NONE', *, *, #62, .T. ) ;
#21 = EDGE_CURVE ( 'NONE', #57, #17, #116, .T. ) ;
#22 = DIRECTION ( 'NONE',  ( 1.000000000000000000, 0.0000000000000000000, 0.0000000000000000000 ) ) ;
#23 = DIRECTION ( 'NONE',  ( -0.0000000000000000000, -0.0000000000000000000, 1.000000000000000000 ) ) ;
#24 = CARTESIAN_POINT ( 'NONE',  ( 0.0000000000000000000, 0.0000000000000000000, -0.2241529772665290200 ) ) ;
#25 = AXIS2_PLACEMENT_3D ( 'NONE', #24, #23, #22 ) ;
#26 = CIRCLE ( 'NONE', #25, 4.500000000000000900 ) ;
#27 = ORIENTED_EDGE ( 'NONE', *, *, #56, .T. ) ;
#28 = ORIENTED_EDGE ( 'NONE', *, *, #56, .F. ) ;
#29 = ADVANCED_FACE ( 'NONE', ( #111 ), #140, .F. ) ;
#30 = EDGE_LOOP ( 'NONE', ( #49, #36, #20, #34 ) ) ;
#31 = CLOSED_SHELL ( 'NONE', ( #19, #38, #12, #40, #29 ) ) ;
#32 = ORIENTED_EDGE ( 'NONE', *, *, #53, .F. ) ;
#33 = EDGE_CURVE ( 'NONE', #11, #14, #141, .T. ) ;
#34 = ORIENTED_EDGE ( 'NONE', *, *, #33, .F. ) ;
#35 = ORIENTED_EDGE ( 'NONE', *, *, #21, .T. ) ;
#36 = ORIENTED_EDGE ( 'NONE', *, *, #37, .T. ) ;
#37 = EDGE_CURVE ( 'NONE', #61, #18, #77, .T. ) ;
#38 = ADVANCED_FACE ( 'NONE', ( #123 ), #177, .T. ) ;
#39 = ORIENTED_EDGE ( 'NONE', *, *, #58, .F. ) ;
#40 = ADVANCED_FACE ( 'NONE', ( #189 ), #162, .T. ) ;
#41 = ORIENTED_EDGE ( 'NONE', *, *, #53, .T. ) ;
#42 = ORIENTED_EDGE ( 'NONE', *, *, #10, .F. ) ;
#43 = EDGE_CURVE ( 'NONE', #59, #61, #211, .T. ) ;
#44 = ORIENTED_EDGE ( 'NONE', *, *, #21, .F. ) ;
#45 = EDGE_LOOP ( 'NONE', ( #41, #52, #39, #42, #44 ) ) ;
#46 = ORIENTED_EDGE ( 'NONE', *, *, #47, .T. ) ;
#47 = EDGE_CURVE ( 'NONE', #18, #17, #208, .T. ) ;
#48 = ORIENTED_EDGE ( 'NONE', *, *, #10, .T. ) ;
#49 = ORIENTED_EDGE ( 'NONE', *, *, #58, .T. ) ;
#50 = ORIENTED_EDGE ( 'NONE', *, *, #62, .F. ) ;
#51 = EDGE_LOOP ( 'NONE', ( #50, #46, #48, #13 ) ) ;
#52 = ORIENTED_EDGE ( 'NONE', *, *, #43, .T. ) ;
#53 = EDGE_CURVE ( 'NONE', #57, #59, #165, .T. ) ;
#54 = MANIFOLD_SOLID_BREP ( 'NONE', #31 ) ;
#55 = ORIENTED_EDGE ( 'NONE', *, *, #37, .F. ) ;
#56 = EDGE_CURVE ( 'NONE', #59, #57, #201, .T. ) ;
#57 = VERTEX_POINT ( 'NONE', #196 ) ;
#58 = EDGE_CURVE ( 'NONE', #11, #61, #195, .T. ) ;
#59 = VERTEX_POINT ( 'NONE', #214 ) ;
#60 = EDGE_LOOP ( 'NONE', ( #9, #27, #35, #16, #55 ) ) ;
#61 = VERTEX_POINT ( 'NONE', #225 ) ;
#62 = EDGE_CURVE ( 'NONE', #18, #14, #241, .T. ) ;
#63 =( NAMED_UNIT ( * ) SI_UNIT ( $, .STERADIAN. ) SOLID_ANGLE_UNIT ( ) );
#64 =( LENGTH_UNIT ( ) NAMED_UNIT ( * ) SI_UNIT ( .MILLI., .METRE. ) );
#65 = MECHANICAL_DESIGN_GEOMETRIC_PRESENTATION_REPRESENTATION (  '', ( #113 ), #94 ) ;
#66 = DIRECTION ( 'NONE',  ( 1.000000000000000000, 0.0000000000000000000, 0.0000000000000000000 ) ) ;
#67 = DIRECTION ( 'NONE',  ( -0.0000000000000000000, -0.0000000000000000000, 1.000000000000000000 ) ) ;
#68 = CARTESIAN_POINT ( 'NONE',  ( 0.0000000000000000000, 0.0000000000000000000, 4.308132045400366600 ) ) ;
#69 = SURFACE_STYLE_FILL_AREA ( #70 ) ;
#70 = FILL_AREA_STYLE ('',( #71 ) ) ;
#71 = FILL_AREA_STYLE_COLOUR ( '', #72 ) ;
#72 = COLOUR_RGB ( '',0.9568627450980391500, 0.9490196078431372100, 0.9607843137254902200 ) ;
#73 = DIRECTION ( 'NONE',  ( 1.000000000000000000, 0.0000000000000000000, 0.0000000000000000000 ) ) ;
#74 = DIRECTION ( 'NONE',  ( -0.0000000000000000000, -0.0000000000000000000, 1.000000000000000000 ) ) ;
#75 = CARTESIAN_POINT ( 'NONE',  ( 0.0000000000000000000, 0.0000000000000000000, -0.2241529772665290200 ) ) ;
#76 = AXIS2_PLACEMENT_3D ( 'NONE', #75, #74, #73 ) ;
#77 = CIRCLE ( 'NONE', #76, 4.500000000000000900 ) ;
#78 = UNCERTAINTY_MEASURE_WITH_UNIT (LENGTH_MEASURE( 1.000000000000000100E-005 ), #106, 'distance_accuracy_value', 'NONE');
#79 =( NAMED_UNIT ( * ) SI_UNIT ( $, .STERADIAN. ) SOLID_ANGLE_UNIT ( ) );
#80 = SURFACE_STYLE_USAGE ( .BOTH. , #100 ) ;
#81 = CYLINDRICAL_SURFACE ( 'NONE', #115, 4.500000000000000900 ) ;
#82 = PRESENTATION_LAYER_ASSIGNMENT (  '', '', ( #128 ) ) ;
#83 = FILL_AREA_STYLE_COLOUR ( '', #102 ) ;
#84 = FILL_AREA_STYLE_COLOUR ( '', #85 ) ;
#85 = COLOUR_RGB ( '',0.9568627450980391500, 0.9490196078431372100, 0.9607843137254902200 ) ;
#86 = FACE_OUTER_BOUND ( 'NONE', #45, .T. ) ;
#87 = CARTESIAN_POINT ( 'NONE',  ( 4.500000000000000900, 0.0000000000000000000, -0.2241529772665290200 ) ) ;
#88 = CARTESIAN_POINT ( 'NONE',  ( 0.0000000000000000000, 3.784033633311147400E-016, 1.720000000000000200 ) ) ;
#89 = DIRECTION ( 'NONE',  ( 0.0000000000000000000, 1.000000000000000000, 0.0000000000000000000 ) ) ;
#90 = DIRECTION ( 'NONE',  ( -1.000000000000000000, 0.0000000000000000000, 0.0000000000000000000 ) ) ;
#91 = SPHERICAL_SURFACE ( 'NONE', #131, 6.180000000000002400 ) ;
#92 = CARTESIAN_POINT ( 'NONE',  ( -5.510728592200698600E-016, -4.500000000000000900, -0.2241529772665294400 ) ) ;
#93 =( GEOMETRIC_REPRESENTATION_CONTEXT ( 3 ) GLOBAL_UNCERTAINTY_ASSIGNED_CONTEXT ( ( #78 ) ) GLOBAL_UNIT_ASSIGNED_CONTEXT ( ( #106, #127, #79 ) ) REPRESENTATION_CONTEXT ( 'NONE', 'WORKASPACE' ) );
#94 =( GEOMETRIC_REPRESENTATION_CONTEXT ( 3 ) GLOBAL_UNCERTAINTY_ASSIGNED_CONTEXT ( ( #144 ) ) GLOBAL_UNIT_ASSIGNED_CONTEXT ( ( #64, #149, #129 ) ) REPRESENTATION_CONTEXT ( 'NONE', 'WORKASPACE' ) );
#95 = PRESENTATION_LAYER_ASSIGNMENT (  '', '', ( #96 ) ) ;
#96 = STYLED_ITEM ( 'NONE', ( #97 ), #29 ) ;
#97 = PRESENTATION_STYLE_ASSIGNMENT (( #98 ) ) ;
#98 = SURFACE_STYLE_USAGE ( .BOTH. , #99 ) ;
#99 = SURFACE_SIDE_STYLE ('',( #108 ) ) ;
#100 = SURFACE_SIDE_STYLE ('',( #136 ) ) ;
#101 =( NAMED_UNIT ( * ) PLANE_ANGLE_UNIT ( ) SI_UNIT ( $, .RADIAN. ) );
#102 = COLOUR_RGB ( '',0.9568627450980391500, 0.9490196078431372100, 0.9607843137254902200 ) ;
#103 =( LENGTH_UNIT ( ) NAMED_UNIT ( * ) SI_UNIT ( .MILLI., .METRE. ) );
#104 = CARTESIAN_POINT ( 'NONE',  ( 0.0000000000000000000, 0.0000000000000000000, -4.460000000000001700 ) ) ;
#105 = CARTESIAN_POINT ( 'NONE',  ( 0.0000000000000000000, 4.500000000000000900, -0.2241529772665294400 ) ) ;
#106 =( LENGTH_UNIT ( ) NAMED_UNIT ( * ) SI_UNIT ( .MILLI., .METRE. ) );
#107 = MECHANICAL_DESIGN_GEOMETRIC_PRESENTATION_REPRESENTATION (  '', ( #96 ), #93 ) ;
#108 = SURFACE_STYLE_FILL_AREA ( #109 ) ;
#109 = FILL_AREA_STYLE ('',( #120 ) ) ;
#110 = COLOUR_RGB ( '',0.9568627450980391500, 0.9490196078431372100, 0.9607843137254902200 ) ;
#111 = FACE_OUTER_BOUND ( 'NONE', #15, .T. ) ;
#112 = PRESENTATION_LAYER_ASSIGNMENT (  '', '', ( #113 ) ) ;
#113 = STYLED_ITEM ( 'NONE', ( #114 ), #19 ) ;
#114 = PRESENTATION_STYLE_ASSIGNMENT (( #132 ) ) ;
#115 = AXIS2_PLACEMENT_3D ( 'NONE', #68, #67, #66 ) ;
#116 = LINE ( 'NONE', #119, #118 ) ;
#117 = DIRECTION ( 'NONE',  ( -0.0000000000000000000, -0.0000000000000000000, 1.000000000000000000 ) ) ;
#118 = VECTOR ( 'NONE', #117, 1000.000000000000000 ) ;
#119 = CARTESIAN_POINT ( 'NONE',  ( 4.500000000000000900, 0.0000000000000000000, 4.308132045400366600 ) ) ;
#120 = FILL_AREA_STYLE_COLOUR ( '', #110 ) ;
#121 = AXIS2_PLACEMENT_3D ( 'NONE', #126, #125, #124 ) ;
#122 = DIRECTION ( 'NONE',  ( 1.000000000000000000, 0.0000000000000000000, 0.0000000000000000000 ) ) ;
#123 = FACE_OUTER_BOUND ( 'NONE', #30, .T. ) ;
#124 = DIRECTION ( 'NONE',  ( 0.0000000000000000000, 0.0000000000000000000, -1.000000000000000000 ) ) ;
#125 = DIRECTION ( 'NONE',  ( 1.000000000000000000, 0.0000000000000000000, 0.0000000000000000000 ) ) ;
#126 = CARTESIAN_POINT ( 'NONE',  ( 0.0000000000000000000, 0.0000000000000000000, -4.460000000000001700 ) ) ;
#127 =( NAMED_UNIT ( * ) PLANE_ANGLE_UNIT ( ) SI_UNIT ( $, .RADIAN. ) );
#128 = STYLED_ITEM ( 'NONE', ( #146 ), #12 ) ;
#129 =( NAMED_UNIT ( * ) SI_UNIT ( $, .STERADIAN. ) SOLID_ANGLE_UNIT ( ) );
#130 =( GEOMETRIC_REPRESENTATION_CONTEXT ( 3 ) GLOBAL_UNCERTAINTY_ASSIGNED_CONTEXT ( ( #142 ) ) GLOBAL_UNIT_ASSIGNED_CONTEXT ( ( #103, #101, #143 ) ) REPRESENTATION_CONTEXT ( 'NONE', 'WORKASPACE' ) );
#131 = AXIS2_PLACEMENT_3D ( 'NONE', #104, #90, #89 ) ;
#132 = SURFACE_STYLE_USAGE ( .BOTH. , #133 ) ;
#133 = SURFACE_SIDE_STYLE ('',( #134 ) ) ;
#134 = SURFACE_STYLE_FILL_AREA ( #135 ) ;
#135 = FILL_AREA_STYLE ('',( #84 ) ) ;
#136 = SURFACE_STYLE_FILL_AREA ( #145 ) ;
#137 = DIRECTION ( 'NONE',  ( 0.0000000000000000000, -0.0000000000000000000, 1.000000000000000000 ) ) ;
#138 = CARTESIAN_POINT ( 'NONE',  ( 0.0000000000000000000, 6.319177483600342400E-016, -1.720000000000000000 ) ) ;
#139 = AXIS2_PLACEMENT_3D ( 'NONE', #138, #137, #122 ) ;
#140 = PLANE ( 'NONE',  #139 ) ;
#141 = CIRCLE ( 'NONE', #121, 6.180000000000001500 ) ;
#142 = UNCERTAINTY_MEASURE_WITH_UNIT (LENGTH_MEASURE( 1.000000000000000100E-005 ), #103, 'distance_accuracy_value', 'NONE');
#143 =( NAMED_UNIT ( * ) SI_UNIT ( $, .STERADIAN. ) SOLID_ANGLE_UNIT ( ) );
#144 = UNCERTAINTY_MEASURE_WITH_UNIT (LENGTH_MEASURE( 1.000000000000000100E-005 ), #64, 'distance_accuracy_value', 'NONE');
#145 = FILL_AREA_STYLE ('',( #83 ) ) ;
#146 = PRESENTATION_STYLE_ASSIGNMENT (( #80 ) ) ;
#147 = FACE_OUTER_BOUND ( 'NONE', #51, .T. ) ;
#148 = MECHANICAL_DESIGN_GEOMETRIC_PRESENTATION_REPRESENTATION (  '', ( #128 ), #130 ) ;
#149 =( NAMED_UNIT ( * ) PLANE_ANGLE_UNIT ( ) SI_UNIT ( $, .RADIAN. ) );
#150 = SURFACE_STYLE_FILL_AREA ( #154 ) ;
#151 = FILL_AREA_STYLE_COLOUR ( '', #159 ) ;
#152 = DIRECTION ( 'NONE',  ( -1.000000000000000000, 0.0000000000000000000, 0.0000000000000000000 ) ) ;
#153 =( LENGTH_UNIT ( ) NAMED_UNIT ( * ) SI_UNIT ( .MILLI., .METRE. ) );
#154 = FILL_AREA_STYLE ('',( #151 ) ) ;
#155 =( GEOMETRIC_REPRESENTATION_CONTEXT ( 3 ) GLOBAL_UNCERTAINTY_ASSIGNED_CONTEXT ( ( #188 ) ) GLOBAL_UNIT_ASSIGNED_CONTEXT ( ( #187, #194, #193 ) ) REPRESENTATION_CONTEXT ( 'NONE', 'WORKASPACE' ) );
#156 = SURFACE_STYLE_USAGE ( .BOTH. , #176 ) ;
#157 = AXIS2_PLACEMENT_3D ( 'NONE', #205, #152, #190 ) ;
#158 = PRESENTATION_STYLE_ASSIGNMENT (( #156 ) ) ;
#159 = COLOUR_RGB ( '',0.9568627450980391500, 0.9490196078431372100, 0.9607843137254902200 ) ;
#160 = MECHANICAL_DESIGN_GEOMETRIC_PRESENTATION_REPRESENTATION (  '', ( #175 ), #155 ) ;
#161 =( GEOMETRIC_REPRESENTATION_CONTEXT ( 3 ) GLOBAL_UNCERTAINTY_ASSIGNED_CONTEXT ( ( #168 ) ) GLOBAL_UNIT_ASSIGNED_CONTEXT ( ( #5, #4, #63 ) ) REPRESENTATION_CONTEXT ( 'NONE', 'WORKASPACE' ) );
#162 = CYLINDRICAL_SURFACE ( 'NONE', #164, 4.500000000000000900 ) ;
#163 = CARTESIAN_POINT ( 'NONE',  ( 0.0000000000000000000, 0.0000000000000000000, 4.308132045400366600 ) ) ;
#164 = AXIS2_PLACEMENT_3D ( 'NONE', #163, #213, #212 ) ;
#165 = CIRCLE ( 'NONE', #172, 4.500000000000000900 ) ;
#166 = DIRECTION ( 'NONE',  ( 1.000000000000000000, 0.0000000000000000000, 0.0000000000000000000 ) ) ;
#167 = DIRECTION ( 'NONE',  ( -0.0000000000000000000, -0.0000000000000000000, 1.000000000000000000 ) ) ;
#168 = UNCERTAINTY_MEASURE_WITH_UNIT (LENGTH_MEASURE( 1.000000000000000100E-005 ), #5, 'distance_accuracy_value', 'NONE');
#169 = COLOUR_RGB ( '',0.7960784313725489700, 0.8235294117647058400, 0.9372549019607843100 ) ;
#170 = DIRECTION ( 'NONE',  ( 1.000000000000000000, 0.0000000000000000000, 0.0000000000000000000 ) ) ;
#171 = DIRECTION ( 'NONE',  ( -0.0000000000000000000, -0.0000000000000000000, 1.000000000000000000 ) ) ;
#172 = AXIS2_PLACEMENT_3D ( 'NONE', #209, #171, #170 ) ;
#173 = FILL_AREA_STYLE ('',( #174 ) ) ;
#174 = FILL_AREA_STYLE_COLOUR ( '', #169 ) ;
#175 = STYLED_ITEM ( 'NONE', ( #158 ), #40 ) ;
#176 = SURFACE_SIDE_STYLE ('',( #150 ) ) ;
#177 = SPHERICAL_SURFACE ( 'NONE', #157, 6.180000000000002400 ) ;
#178 = MECHANICAL_DESIGN_GEOMETRIC_PRESENTATION_REPRESENTATION (  '', ( #180 ), #185 ) ;
#179 = PRESENTATION_LAYER_ASSIGNMENT (  '', '', ( #180 ) ) ;
#180 = STYLED_ITEM ( 'NONE', ( #181 ), #54 ) ;
#181 = PRESENTATION_STYLE_ASSIGNMENT (( #182 ) ) ;
#182 = SURFACE_STYLE_USAGE ( .BOTH. , #183 ) ;
#183 = SURFACE_SIDE_STYLE ('',( #184 ) ) ;
#184 = SURFACE_STYLE_FILL_AREA ( #173 ) ;
#185 =( GEOMETRIC_REPRESENTATION_CONTEXT ( 3 ) GLOBAL_UNCERTAINTY_ASSIGNED_CONTEXT ( ( #186 ) ) GLOBAL_UNIT_ASSIGNED_CONTEXT ( ( #153, #192, #191 ) ) REPRESENTATION_CONTEXT ( 'NONE', 'WORKASPACE' ) );
#186 = UNCERTAINTY_MEASURE_WITH_UNIT (LENGTH_MEASURE( 1.000000000000000100E-005 ), #153, 'distance_accuracy_value', 'NONE');
#187 =( LENGTH_UNIT ( ) NAMED_UNIT ( * ) SI_UNIT ( .MILLI., .METRE. ) );
#188 = UNCERTAINTY_MEASURE_WITH_UNIT (LENGTH_MEASURE( 1.000000000000000100E-005 ), #187, 'distance_accuracy_value', 'NONE');
#189 = FACE_OUTER_BOUND ( 'NONE', #60, .T. ) ;
#190 = DIRECTION ( 'NONE',  ( 0.0000000000000000000, 1.000000000000000000, 0.0000000000000000000 ) ) ;
#191 =( NAMED_UNIT ( * ) SI_UNIT ( $, .STERADIAN. ) SOLID_ANGLE_UNIT ( ) );
#192 =( NAMED_UNIT ( * ) PLANE_ANGLE_UNIT ( ) SI_UNIT ( $, .RADIAN. ) );
#193 =( NAMED_UNIT ( * ) SI_UNIT ( $, .STERADIAN. ) SOLID_ANGLE_UNIT ( ) );
#194 =( NAMED_UNIT ( * ) PLANE_ANGLE_UNIT ( ) SI_UNIT ( $, .RADIAN. ) );
#195 = CIRCLE ( 'NONE', #235, 4.500000000000000900 ) ;
#196 = CARTESIAN_POINT ( 'NONE',  ( 4.500000000000000900, 0.0000000000000000000, -1.720000000000000200 ) ) ;
#197 = DIRECTION ( 'NONE',  ( 1.000000000000000000, 0.0000000000000000000, 0.0000000000000000000 ) ) ;
#198 = DIRECTION ( 'NONE',  ( -0.0000000000000000000, -0.0000000000000000000, 1.000000000000000000 ) ) ;
#199 = CARTESIAN_POINT ( 'NONE',  ( 0.0000000000000000000, 0.0000000000000000000, -1.720000000000000200 ) ) ;
#200 = AXIS2_PLACEMENT_3D ( 'NONE', #199, #198, #197 ) ;
#201 = CIRCLE ( 'NONE', #200, 4.500000000000000900 ) ;
#202 = DIRECTION ( 'NONE',  ( -0.0000000000000000000, -0.0000000000000000000, 1.000000000000000000 ) ) ;
#203 = VECTOR ( 'NONE', #202, 1000.000000000000000 ) ;
#204 = CARTESIAN_POINT ( 'NONE',  ( -4.500000000000000900, 5.510728592200698600E-016, 4.308132045400366600 ) ) ;
#205 = CARTESIAN_POINT ( 'NONE',  ( 0.0000000000000000000, 0.0000000000000000000, -4.460000000000001700 ) ) ;
#206 = CARTESIAN_POINT ( 'NONE',  ( 0.0000000000000000000, 0.0000000000000000000, -0.2241529772665290200 ) ) ;
#207 = AXIS2_PLACEMENT_3D ( 'NONE', #206, #167, #166 ) ;
#208 = CIRCLE ( 'NONE', #207, 4.500000000000000900 ) ;
#209 = CARTESIAN_POINT ( 'NONE',  ( 0.0000000000000000000, 0.0000000000000000000, -1.720000000000000200 ) ) ;
#210 = PRESENTATION_LAYER_ASSIGNMENT (  '', '', ( #175 ) ) ;
#211 = LINE ( 'NONE', #204, #203 ) ;
#212 = DIRECTION ( 'NONE',  ( 1.000000000000000000, 0.0000000000000000000, 0.0000000000000000000 ) ) ;
#213 = DIRECTION ( 'NONE',  ( -0.0000000000000000000, -0.0000000000000000000, 1.000000000000000000 ) ) ;
#214 = CARTESIAN_POINT ( 'NONE',  ( -4.500000000000000900, 5.510728592200698600E-016, -1.720000000000000200 ) ) ;
#215 = ADVANCED_BREP_SHAPE_REPRESENTATION ( '4475-E0W', ( #54, #224 ), #233 ) ;
#216 = DIRECTION ( 'NONE',  ( 1.000000000000000000, 0.0000000000000000000, 0.0000000000000000000 ) ) ;
#217 = SURFACE_STYLE_FILL_AREA ( #218 ) ;
#218 = FILL_AREA_STYLE ('',( #219 ) ) ;
#219 = FILL_AREA_STYLE_COLOUR ( '', #220 ) ;
#220 = COLOUR_RGB ( '',0.7960784313725489700, 0.8235294117647058400, 0.9372549019607843100 ) ;
#221 =( LENGTH_UNIT ( ) NAMED_UNIT ( * ) SI_UNIT ( .MILLI., .METRE. ) );
#222 = DIRECTION ( 'NONE',  ( -0.0000000000000000000, -0.0000000000000000000, 1.000000000000000000 ) ) ;
#223 = CARTESIAN_POINT ( 'NONE',  ( 0.0000000000000000000, 0.0000000000000000000, 0.0000000000000000000 ) ) ;
#224 = AXIS2_PLACEMENT_3D ( 'NONE', #223, #226, #246 ) ;
#225 = CARTESIAN_POINT ( 'NONE',  ( -4.500000000000000900, 5.510728592200698600E-016, -0.2241529772665290200 ) ) ;
#226 = DIRECTION ( 'NONE',  ( 0.0000000000000000000, 0.0000000000000000000, 1.000000000000000000 ) ) ;
#227 = STYLED_ITEM ( 'NONE', ( #228 ), #215 ) ;
#228 = PRESENTATION_STYLE_ASSIGNMENT (( #229 ) ) ;
#229 = SURFACE_STYLE_USAGE ( .BOTH. , #230 ) ;
#230 = SURFACE_SIDE_STYLE ('',( #217 ) ) ;
#231 =( NAMED_UNIT ( * ) SI_UNIT ( $, .STERADIAN. ) SOLID_ANGLE_UNIT ( ) );
#232 =( NAMED_UNIT ( * ) PLANE_ANGLE_UNIT ( ) SI_UNIT ( $, .RADIAN. ) );
#233 =( GEOMETRIC_REPRESENTATION_CONTEXT ( 3 ) GLOBAL_UNCERTAINTY_ASSIGNED_CONTEXT ( ( #239 ) ) GLOBAL_UNIT_ASSIGNED_CONTEXT ( ( #221, #232, #231 ) ) REPRESENTATION_CONTEXT ( 'NONE', 'WORKASPACE' ) );
#234 =( GEOMETRIC_REPRESENTATION_CONTEXT ( 3 ) GLOBAL_UNCERTAINTY_ASSIGNED_CONTEXT ( ( #243 ) ) GLOBAL_UNIT_ASSIGNED_CONTEXT ( ( #247, #236, #244 ) ) REPRESENTATION_CONTEXT ( 'NONE', 'WORKASPACE' ) );
#235 = AXIS2_PLACEMENT_3D ( 'NONE', #242, #222, #216 ) ;
#236 =( NAMED_UNIT ( * ) PLANE_ANGLE_UNIT ( ) SI_UNIT ( $, .RADIAN. ) );
#237 = DIRECTION ( 'NONE',  ( -1.224606353822377300E-016, -1.000000000000000000, 0.0000000000000000000 ) ) ;
#238 = DIRECTION ( 'NONE',  ( -1.000000000000000000, 1.224606353822377300E-016, 0.0000000000000000000 ) ) ;
#239 = UNCERTAINTY_MEASURE_WITH_UNIT (LENGTH_MEASURE( 1.000000000000000100E-005 ), #221, 'distance_accuracy_value', 'NONE');
#240 = CARTESIAN_POINT ( 'NONE',  ( 0.0000000000000000000, 0.0000000000000000000, -4.460000000000001700 ) ) ;
#241 = CIRCLE ( 'NONE', #245, 6.180000000000002400 ) ;
#242 = CARTESIAN_POINT ( 'NONE',  ( 0.0000000000000000000, 0.0000000000000000000, -0.2241529772665290200 ) ) ;
#243 = UNCERTAINTY_MEASURE_WITH_UNIT (LENGTH_MEASURE( 1.000000000000000100E-005 ), #247, 'distance_accuracy_value', 'NONE');
#244 =( NAMED_UNIT ( * ) SI_UNIT ( $, .STERADIAN. ) SOLID_ANGLE_UNIT ( ) );
#245 = AXIS2_PLACEMENT_3D ( 'NONE', #240, #238, #237 ) ;
#246 = DIRECTION ( 'NONE',  ( 1.000000000000000000, 0.0000000000000000000, 0.0000000000000000000 ) ) ;
#247 =( LENGTH_UNIT ( ) NAMED_UNIT ( * ) SI_UNIT ( .MILLI., .METRE. ) );
#248 = MECHANICAL_DESIGN_GEOMETRIC_PRESENTATION_REPRESENTATION (  '', ( #227 ), #234 ) ;
#249 = PRESENTATION_LAYER_ASSIGNMENT (  '', '', ( #227 ) ) ;
#250 = APPLICATION_CONTEXT ( 'automotive_design' ) ;
#251 = APPLICATION_CONTEXT ( 'automotive_design' ) ;
#252 = PRODUCT ( '4475-E0W', '4475-E0W', '', ( #253 ) ) ;
#253 = PRODUCT_CONTEXT ( 'NONE', #250, 'mechanical' ) ;
#254 = APPLICATION_PROTOCOL_DEFINITION ( 'draft international standard', 'automotive_design', 1998, #250 ) ;
#255 = SHAPE_DEFINITION_REPRESENTATION ( #261, #215 ) ;
#256 = PRODUCT_RELATED_PRODUCT_CATEGORY ( 'part', '', ( #252 ) ) ;
#257 = PRODUCT_DEFINITION_FORMATION_WITH_SPECIFIED_SOURCE ( 'ANY', '', #252, .NOT_KNOWN. ) ;
#258 = PRODUCT_DEFINITION ( 'UNKNOWN', '', #257, #259 ) ;
#259 = PRODUCT_DEFINITION_CONTEXT ( 'detailed design', #251, 'design' ) ;
#260 = APPLICATION_PROTOCOL_DEFINITION ( 'draft international standard', 'automotive_design', 1998, #251 ) ;
#261 = PRODUCT_DEFINITION_SHAPE ( 'NONE', 'NONE',  #258 ) ;
ENDSEC;
END-ISO-10303-21;
