ISO-10303-21;
HEADER;
FILE_DESCRIPTION (( 'STEP AP203' ),
    '1' );
FILE_NAME ('4270-E0W.STEP',
    '2015-05-29T14:19:03',
    ( 'admin' ),
    ( '' ),
    'SwSTEP 2.0',
    'SolidWorks 2014',
    '' );
FILE_SCHEMA (( 'CONFIG_CONTROL_DESIGN' ));
ENDSEC;

DATA;
#1 = APPLICATION_CONTEXT ( 'configuration controlled 3d designs of mechanical parts and assemblies' ) ;
#2 = DATE_AND_TIME ( #114, #49 ) ;
#3 = DIRECTION ( 'NONE',  ( -1.000000000000000000, -0.0000000000000000000, -0.0000000000000000000 ) ) ;
#5 = ORIENTED_EDGE ( 'NONE', *, *, #292, .T. ) ;
#4 = EDGE_CURVE ( 'NONE', #242, #162, #28, .T. ) ;
#6 = ORIENTED_EDGE ( 'NONE', *, *, #164, .T. ) ;
#7 = EDGE_CURVE ( 'NONE', #227, #242, #93, .T. ) ;
#8 = CARTESIAN_POINT ( 'NONE',  ( 0.2499999999999985000, 3.673940397442060400E-016, -3.000000000000000400 ) ) ;
#9 = TOROIDAL_SURFACE ( 'NONE', #172, 0.008333962454206735000, 9.199999999999999300 ) ;
#10 = LINE ( 'NONE', #281, #200 ) ;
#11 = DIRECTION ( 'NONE',  ( 0.0000000000000000000, 0.0000000000000000000, 1.000000000000000000 ) ) ;
#12 = CARTESIAN_POINT ( 'NONE',  ( -1.000000000000000000, 0.0000000000000000000, 0.0000000000000000000 ) ) ;
#13 = PERSON_AND_ORGANIZATION ( #71, #271 ) ;
#14 = DIRECTION ( 'NONE',  ( 1.000000000000000000, 0.0000000000000000000, 0.0000000000000000000 ) ) ;
#15 = CC_DESIGN_APPROVAL ( #158, ( #119 ) ) ;
#16 = ORIENTED_EDGE ( 'NONE', *, *, #4, .T. ) ;
#17 = DIRECTION ( 'NONE',  ( -1.000000000000000000, -0.0000000000000000000, -0.0000000000000000000 ) ) ;
#18 = AXIS2_PLACEMENT_3D ( 'NONE', #293, #3, #252 ) ;
#19 = DIRECTION ( 'NONE',  ( 0.0000000000000000000, 0.0000000000000000000, -1.000000000000000000 ) ) ;
#20 = LINE ( 'NONE', #176, #264 ) ;
#21 = CARTESIAN_POINT ( 'NONE',  ( -1.000000000000000000, 0.0000000000000000000, 0.0000000000000000000 ) ) ;
#22 = ADVANCED_FACE ( 'NONE', ( #149 ), #145, .T. ) ;
#24 = EDGE_CURVE ( 'NONE', #38, #198, #10, .T. ) ;
#23 = VERTEX_POINT ( 'NONE', #204 ) ;
#25 = LOCAL_TIME ( 10, 19, 3.000000000000000000, #33 ) ;
#26 = DIRECTION ( 'NONE',  ( 1.000000000000000000, 0.0000000000000000000, 0.0000000000000000000 ) ) ;
#27 = DIRECTION ( 'NONE',  ( 0.0000000000000000000, 0.0000000000000000000, 1.000000000000000000 ) ) ;
#28 = CIRCLE ( 'NONE', #206, 2.766860858514780000 ) ;
#29 = ORIENTED_EDGE ( 'NONE', *, *, #4, .F. ) ;
#30 = APPROVAL_STATUS ( 'not_yet_approved' ) ;
#31 = PERSON_AND_ORGANIZATION ( #71, #271 ) ;
#32 = DATE_AND_TIME ( #44, #186 ) ;
#33 = COORDINATED_UNIVERSAL_TIME_OFFSET ( 5, 0, .BEHIND. ) ;
#34 = DIRECTION ( 'NONE',  ( 1.000000000000000000, 0.0000000000000000000, 0.0000000000000000000 ) ) ;
#35 = CC_DESIGN_APPROVAL ( #173, ( #222 ) ) ;
#36 = DIRECTION ( 'NONE',  ( 1.000000000000000000, 0.0000000000000000000, 0.0000000000000000000 ) ) ;
#37 = LINE ( 'NONE', #63, #175 ) ;
#38 = VERTEX_POINT ( 'NONE', #8 ) ;
#39 = PERSON_AND_ORGANIZATION_ROLE ( 'creator' ) ;
#40 = EDGE_CURVE ( 'NONE', #23, #152, #277, .T. ) ;
#41 = AXIS2_PLACEMENT_3D ( 'NONE', #300, #26, #161 ) ;
#42 = COORDINATED_UNIVERSAL_TIME_OFFSET ( 5, 0, .BEHIND. ) ;
#43 = ADVANCED_FACE ( 'NONE', ( #284 ), #60, .T. ) ;
#44 = CALENDAR_DATE ( 2015, 29, 5 ) ;
#45 = ORIENTED_EDGE ( 'NONE', *, *, #55, .F. ) ;
#46 = PRODUCT_DEFINITION_SHAPE ( 'NONE', 'NONE',  #119 ) ;
#47 = CARTESIAN_POINT ( 'NONE',  ( -1.000000000000000000, 0.0000000000000000000, -2.750000000000000900 ) ) ;
#48 = APPROVAL_DATE_TIME ( #288, #173 ) ;
#49 = LOCAL_TIME ( 10, 19, 3.000000000000000000, #177 ) ;
#50 = CALENDAR_DATE ( 2015, 29, 5 ) ;
#51 = ADVANCED_FACE ( 'NONE', ( #121 ), #215, .T. ) ;
#52 = AXIS2_PLACEMENT_3D ( 'NONE', #54, #272, #205 ) ;
#53 = DESIGN_CONTEXT ( 'detailed design', #1, 'design' ) ;
#54 = CARTESIAN_POINT ( 'NONE',  ( -1.000000000000000000, 0.0000000000000000000, 0.0000000000000000000 ) ) ;
#55 = EDGE_CURVE ( 'NONE', #38, #212, #166, .T. ) ;
#56 = LINE ( 'NONE', #75, #99 ) ;
#57 = APPROVAL_ROLE ( '' ) ;
#58 = AXIS2_PLACEMENT_3D ( 'NONE', #21, #256, #241 ) ;
#59 = PRODUCT ( '4270-E0W', '4270-E0W', '', ( #88 ) ) ;
#60 = CYLINDRICAL_SURFACE ( 'NONE', #250, 3.000000000000000400 ) ;
#61 = CC_DESIGN_SECURITY_CLASSIFICATION ( #213, ( #222 ) ) ;
#62 =( GEOMETRIC_REPRESENTATION_CONTEXT ( 3 ) GLOBAL_UNCERTAINTY_ASSIGNED_CONTEXT ( ( #192 ) ) GLOBAL_UNIT_ASSIGNED_CONTEXT ( ( #283, #280, #287 ) ) REPRESENTATION_CONTEXT ( 'NONE', 'WORKASPACE' ) );
#63 = CARTESIAN_POINT ( 'NONE',  ( 0.2499999999999985000, 0.0000000000000000000, 3.000000000000000400 ) ) ;
#64 = ORIENTED_EDGE ( 'NONE', *, *, #122, .T. ) ;
#65 = DIRECTION ( 'NONE',  ( -0.0000000000000000000, 1.000000000000000000, 1.224646799147353200E-016 ) ) ;
#66 = VECTOR ( 'NONE', #214, 1000.000000000000000 ) ;
#67 = CARTESIAN_POINT ( 'NONE',  ( -1.000000000000000000, 0.0000000000000000000, -2.750000000000000900 ) ) ;
#68 = APPROVAL_ROLE ( '' ) ;
#69 = CIRCLE ( 'NONE', #260, 9.199999999999999300 ) ;
#70 = ORIENTED_EDGE ( 'NONE', *, *, #24, .T. ) ;
#71 = PERSON ( 'UNSPECIFIED', 'UNSPECIFIED', 'UNSPECIFIED', ('UNSPECIFIED'), ('UNSPECIFIED'), ('UNSPECIFIED') ) ;
#72 = PERSON_AND_ORGANIZATION_ROLE ( 'classification_officer' ) ;
#73 = CARTESIAN_POINT ( 'NONE',  ( -0.7499999999999997800, 0.0000000000000000000, 3.000000000000000400 ) ) ;
#74 = PERSON_AND_ORGANIZATION ( #71, #271 ) ;
#75 = CARTESIAN_POINT ( 'NONE',  ( -1.000000000000000000, 3.367778697655222000E-016, 2.750000000000000900 ) ) ;
#76 = PLANE ( 'NONE',  #151 ) ;
#77 = PERSON_AND_ORGANIZATION ( #71, #271 ) ;
#78 = ADVANCED_FACE ( 'NONE', ( #255 ), #104, .T. ) ;
#79 = DIRECTION ( 'NONE',  ( 1.000000000000000000, 0.0000000000000000000, 0.0000000000000000000 ) ) ;
#80 = ORIENTED_EDGE ( 'NONE', *, *, #187, .F. ) ;
#81 = APPROVAL_PERSON_ORGANIZATION ( #74, #158, #57 ) ;
#82 = ORIENTED_EDGE ( 'NONE', *, *, #211, .F. ) ;
#83 = AXIS2_PLACEMENT_3D ( 'NONE', #12, #14, #183 ) ;
#84 = DIRECTION ( 'NONE',  ( 1.000000000000000000, 0.0000000000000000000, 0.0000000000000000000 ) ) ;
#85 = DIRECTION ( 'NONE',  ( -0.8139966495746743200, 0.0000000000000000000, 0.5808695675288945100 ) ) ;
#86 = ORIENTED_EDGE ( 'NONE', *, *, #24, .F. ) ;
#87 = DIRECTION ( 'NONE',  ( 0.7071067811865482400, 8.659560562354927900E-017, 0.7071067811865469100 ) ) ;
#88 = MECHANICAL_CONTEXT ( 'NONE', #107, 'mechanical' ) ;
#89 = CIRCLE ( 'NONE', #125, 2.766860858514780000 ) ;
#90 = APPROVAL_PERSON_ORGANIZATION ( #13, #173, #289 ) ;
#91 = EDGE_CURVE ( 'NONE', #198, #133, #282, .T. ) ;
#92 = ADVANCED_FACE ( 'NONE', ( #136 ), #76, .F. ) ;
#93 = CIRCLE ( 'NONE', #279, 9.199999999999999300 ) ;
#94 = CARTESIAN_POINT ( 'NONE',  ( 0.2499999999999985000, 0.0000000000000000000, 3.000000000000000400 ) ) ;
#95 = ORIENTED_EDGE ( 'NONE', *, *, #270, .T. ) ;
#96 = DIRECTION ( 'NONE',  ( 1.000000000000000000, 0.0000000000000000000, 0.0000000000000000000 ) ) ;
#97 = DIRECTION ( 'NONE',  ( 0.7071067811865482400, 0.0000000000000000000, -0.7071067811865469100 ) ) ;
#98 = AXIS2_PLACEMENT_3D ( 'NONE', #268, #267, #266 ) ;
#99 = VECTOR ( 'NONE', #87, 999.9999999999998900 ) ;
#100 = DIRECTION ( 'NONE',  ( 0.0000000000000000000, 0.0000000000000000000, -1.000000000000000000 ) ) ;
#101 = EDGE_LOOP ( 'NONE', ( #216, #197, #16 ) ) ;
#102 = CARTESIAN_POINT ( 'NONE',  ( 0.5767075616665787700, 3.388427294066221800E-016, -2.766860858514779100 ) ) ;
#103 = CC_DESIGN_PERSON_AND_ORGANIZATION_ASSIGNMENT ( #274, #257, ( #222 ) ) ;
#104 = CONICAL_SURFACE ( 'NONE', #290, 3.000000000000000400, 0.6197965531787973400 ) ;
#105 = CALENDAR_DATE ( 2015, 29, 5 ) ;
#106 = ORIENTED_EDGE ( 'NONE', *, *, #140, .F. ) ;
#107 = APPLICATION_CONTEXT ( 'configuration controlled 3d designs of mechanical parts and assemblies' ) ;
#108 = EDGE_LOOP ( 'NONE', ( #134, #29, #262, #45 ) ) ;
#109 = ORIENTED_EDGE ( 'NONE', *, *, #229, .T. ) ;
#110 = DIRECTION ( 'NONE',  ( 0.0000000000000000000, 0.0000000000000000000, -1.000000000000000000 ) ) ;
#111 = TOROIDAL_SURFACE ( 'NONE', #128, 0.008333962454206735000, 9.199999999999999300 ) ;
#113 = EDGE_LOOP ( 'NONE', ( #86, #258, #109, #6 ) ) ;
#112 = CC_DESIGN_PERSON_AND_ORGANIZATION_ASSIGNMENT ( #261, #39, ( #119 ) ) ;
#114 = CALENDAR_DATE ( 2015, 29, 5 ) ;
#115 = AXIS2_PLACEMENT_3D ( 'NONE', #233, #84, #19 ) ;
#116 = DIRECTION ( 'NONE',  ( -1.000000000000000000, -0.0000000000000000000, -0.0000000000000000000 ) ) ;
#117 = DATE_AND_TIME ( #50, #235 ) ;
#118 = ADVANCED_BREP_SHAPE_REPRESENTATION ( '4270-E0W', ( #169, #144 ), #62 ) ;
#119 = PRODUCT_DEFINITION ( 'UNKNOWN', '', #222, #53 ) ;
#120 = CC_DESIGN_PERSON_AND_ORGANIZATION_ASSIGNMENT ( #249, #72, ( #213 ) ) ;
#122 = EDGE_CURVE ( 'NONE', #23, #133, #56, .T. ) ;
#121 = FACE_OUTER_BOUND ( 'NONE', #202, .T. ) ;
#123 = CARTESIAN_POINT ( 'NONE',  ( 0.2499999999999985000, 0.0000000000000000000, 0.0000000000000000000 ) ) ;
#124 = CARTESIAN_POINT ( 'NONE',  ( -0.7499999999999997800, 0.0000000000000000000, 0.0000000000000000000 ) ) ;
#125 = AXIS2_PLACEMENT_3D ( 'NONE', #165, #34, #27 ) ;
#126 = CALENDAR_DATE ( 2015, 29, 5 ) ;
#127 = EDGE_LOOP ( 'NONE', ( #245, #163 ) ) ;
#128 = AXIS2_PLACEMENT_3D ( 'NONE', #223, #188, #138 ) ;
#129 = DIRECTION ( 'NONE',  ( -1.000000000000000000, -0.0000000000000000000, -0.0000000000000000000 ) ) ;
#130 = PRODUCT_RELATED_PRODUCT_CATEGORY ( 'detail', '', ( #59 ) ) ;
#131 = COORDINATED_UNIVERSAL_TIME_OFFSET ( 5, 0, .BEHIND. ) ;
#132 = COORDINATED_UNIVERSAL_TIME_OFFSET ( 5, 0, .BEHIND. ) ;
#133 = VERTEX_POINT ( 'NONE', #73 ) ;
#134 = ORIENTED_EDGE ( 'NONE', *, *, #195, .F. ) ;
#135 = CARTESIAN_POINT ( 'NONE',  ( -1.000000000000000000, 0.0000000000000000000, 0.0000000000000000000 ) ) ;
#136 = FACE_OUTER_BOUND ( 'NONE', #127, .T. ) ;
#137 = ORIENTED_EDGE ( 'NONE', *, *, #211, .T. ) ;
#138 = DIRECTION ( 'NONE',  ( 0.0000000000000000000, 0.0000000000000000000, 1.000000000000000000 ) ) ;
#139 = CC_DESIGN_APPROVAL ( #153, ( #213 ) ) ;
#140 = EDGE_CURVE ( 'NONE', #152, #23, #180, .T. ) ;
#141 = ORIENTED_EDGE ( 'NONE', *, *, #164, .F. ) ;
#142 = DIRECTION ( 'NONE',  ( 0.0000000000000000000, -1.000000000000000000, 0.0000000000000000000 ) ) ;
#143 = CC_DESIGN_DATE_AND_TIME_ASSIGNMENT ( #298, #190, ( #119 ) ) ;
#145 = CONICAL_SURFACE ( 'NONE', #115, 2.750000000000000900, 0.7853981633974473900 ) ;
#144 = AXIS2_PLACEMENT_3D ( 'NONE', #160, #259, #36 ) ;
#146 = CARTESIAN_POINT ( 'NONE',  ( 1.000000000000000000, 0.0000000000000000000, 0.0000000000000000000 ) ) ;
#147 = APPROVAL_DATE_TIME ( #117, #153 ) ;
#148 = SECURITY_CLASSIFICATION_LEVEL ( 'unclassified' ) ;
#149 = FACE_OUTER_BOUND ( 'NONE', #263, .T. ) ;
#150 = ORIENTED_EDGE ( 'NONE', *, *, #40, .F. ) ;
#151 = AXIS2_PLACEMENT_3D ( 'NONE', #159, #79, #219 ) ;
#152 = VERTEX_POINT ( 'NONE', #67 ) ;
#153 = APPROVAL ( #194, 'UNSPECIFIED' ) ;
#154 = CC_DESIGN_PERSON_AND_ORGANIZATION_ASSIGNMENT ( #77, #254, ( #59 ) ) ;
#155 = LINE ( 'NONE', #295, #66 ) ;
#156 = EDGE_LOOP ( 'NONE', ( #5, #70, #185, #240 ) ) ;
#157 = DIRECTION ( 'NONE',  ( 0.0000000000000000000, 0.0000000000000000000, 1.000000000000000000 ) ) ;
#158 = APPROVAL ( #178, 'UNSPECIFIED' ) ;
#159 = CARTESIAN_POINT ( 'NONE',  ( -1.000000000000000000, 0.0000000000000000000, 0.0000000000000000000 ) ) ;
#160 = CARTESIAN_POINT ( 'NONE',  ( 0.0000000000000000000, 0.0000000000000000000, 0.0000000000000000000 ) ) ;
#161 = DIRECTION ( 'NONE',  ( 0.0000000000000000000, 0.0000000000000000000, -1.000000000000000000 ) ) ;
#162 = VERTEX_POINT ( 'NONE', #102 ) ;
#163 = ORIENTED_EDGE ( 'NONE', *, *, #40, .T. ) ;
#164 = EDGE_CURVE ( 'NONE', #133, #198, #247, .T. ) ;
#165 = CARTESIAN_POINT ( 'NONE',  ( 0.5767075616665787700, 0.0000000000000000000, 0.0000000000000000000 ) ) ;
#166 = CIRCLE ( 'NONE', #243, 3.000000000000000400 ) ;
#167 = DIRECTION ( 'NONE',  ( -1.000000000000000000, -0.0000000000000000000, -0.0000000000000000000 ) ) ;
#168 = ORIENTED_EDGE ( 'NONE', *, *, #270, .F. ) ;
#169 = MANIFOLD_SOLID_BREP ( '4270-001-1-solid1', #184 ) ;
#170 = APPLICATION_PROTOCOL_DEFINITION ( 'international standard', 'config_control_design', 1994, #1 ) ;
#171 = CARTESIAN_POINT ( 'NONE',  ( -8.199996225274759400, 1.020616044375849800E-018, -0.008333962454206735000 ) ) ;
#172 = AXIS2_PLACEMENT_3D ( 'NONE', #230, #116, #201 ) ;
#173 = APPROVAL ( #30, 'UNSPECIFIED' ) ;
#174 = PERSON_AND_ORGANIZATION_ROLE ( 'design_supplier' ) ;
#175 = VECTOR ( 'NONE', #85, 1000.000000000000000 ) ;
#176 = CARTESIAN_POINT ( 'NONE',  ( -1.000000000000000000, 0.0000000000000000000, 3.000000000000000400 ) ) ;
#177 = COORDINATED_UNIVERSAL_TIME_OFFSET ( 5, 0, .BEHIND. ) ;
#178 = APPROVAL_STATUS ( 'not_yet_approved' ) ;
#179 = DATE_TIME_ROLE ( 'classification_date' ) ;
#180 = CIRCLE ( 'NONE', #224, 2.750000000000000900 ) ;
#181 = CARTESIAN_POINT ( 'NONE',  ( 0.5767075616665787700, 0.0000000000000000000, 0.0000000000000000000 ) ) ;
#182 = PERSON_AND_ORGANIZATION ( #71, #271 ) ;
#183 = DIRECTION ( 'NONE',  ( 0.0000000000000000000, 0.0000000000000000000, -1.000000000000000000 ) ) ;
#184 = CLOSED_SHELL ( 'NONE', ( #51, #78, #253, #43, #92, #236, #191, #207, #22 ) ) ;
#185 = ORIENTED_EDGE ( 'NONE', *, *, #91, .T. ) ;
#186 = LOCAL_TIME ( 10, 19, 3.000000000000000000, #42 ) ;
#187 = EDGE_CURVE ( 'NONE', #242, #212, #37, .T. ) ;
#188 = DIRECTION ( 'NONE',  ( -1.000000000000000000, -0.0000000000000000000, -0.0000000000000000000 ) ) ;
#189 = CARTESIAN_POINT ( 'NONE',  ( 0.5767075616665787700, 0.0000000000000000000, 2.766860858514779100 ) ) ;
#190 = DATE_TIME_ROLE ( 'creation_date' ) ;
#191 = ADVANCED_FACE ( 'NONE', ( #237 ), #111, .T. ) ;
#192 = UNCERTAINTY_MEASURE_WITH_UNIT (LENGTH_MEASURE( 1.000000000000000100E-005 ), #283, 'distance_accuracy_value', 'NONE');
#193 = LOCAL_TIME ( 10, 19, 3.000000000000000000, #131 ) ;
#194 = APPROVAL_STATUS ( 'not_yet_approved' ) ;
#195 = EDGE_CURVE ( 'NONE', #162, #38, #155, .T. ) ;
#196 = FACE_OUTER_BOUND ( 'NONE', #113, .T. ) ;
#197 = ORIENTED_EDGE ( 'NONE', *, *, #7, .T. ) ;
#198 = VERTEX_POINT ( 'NONE', #291 ) ;
#199 = DIRECTION ( 'NONE',  ( 0.0000000000000000000, 0.0000000000000000000, 1.000000000000000000 ) ) ;
#200 = VECTOR ( 'NONE', #17, 1000.000000000000000 ) ;
#201 = DIRECTION ( 'NONE',  ( 0.0000000000000000000, 0.0000000000000000000, 1.000000000000000000 ) ) ;
#202 = EDGE_LOOP ( 'NONE', ( #150, #64, #275, #168 ) ) ;
#203 = ORIENTED_EDGE ( 'NONE', *, *, #7, .F. ) ;
#204 = CARTESIAN_POINT ( 'NONE',  ( -1.000000000000000000, 3.520859547548641400E-016, 2.750000000000000900 ) ) ;
#205 = DIRECTION ( 'NONE',  ( 0.0000000000000000000, 0.0000000000000000000, -1.000000000000000000 ) ) ;
#206 = AXIS2_PLACEMENT_3D ( 'NONE', #181, #232, #157 ) ;
#207 = ADVANCED_FACE ( 'NONE', ( #239 ), #218, .T. ) ;
#208 = FACE_OUTER_BOUND ( 'NONE', #220, .T. ) ;
#209 = DIRECTION ( 'NONE',  ( -1.000000000000000000, -0.0000000000000000000, -0.0000000000000000000 ) ) ;
#210 = APPROVAL_DATE_TIME ( #32, #158 ) ;
#211 = EDGE_CURVE ( 'NONE', #162, #242, #89, .T. ) ;
#212 = VERTEX_POINT ( 'NONE', #94 ) ;
#213 = SECURITY_CLASSIFICATION ( '', '', #148 ) ;
#214 = DIRECTION ( 'NONE',  ( -0.8139966495746743200, 7.113600565963679900E-017, -0.5808695675288945100 ) ) ;
#215 = CONICAL_SURFACE ( 'NONE', #83, 2.750000000000000900, 0.7853981633974473900 ) ;
#217 = EDGE_CURVE ( 'NONE', #227, #162, #69, .T. ) ;
#216 = ORIENTED_EDGE ( 'NONE', *, *, #217, .F. ) ;
#218 = CONICAL_SURFACE ( 'NONE', #18, 3.000000000000000400, 0.6197965531787973400 ) ;
#219 = DIRECTION ( 'NONE',  ( 0.0000000000000000000, 0.0000000000000000000, -1.000000000000000000 ) ) ;
#220 = EDGE_LOOP ( 'NONE', ( #203, #285, #137 ) ) ;
#221 = EDGE_LOOP ( 'NONE', ( #82, #246, #226, #80 ) ) ;
#222 = PRODUCT_DEFINITION_FORMATION_WITH_SPECIFIED_SOURCE ( 'ANY', '', #59, .NOT_KNOWN. ) ;
#223 = CARTESIAN_POINT ( 'NONE',  ( -8.199996225274759400, 0.0000000000000000000, 0.0000000000000000000 ) ) ;
#224 = AXIS2_PLACEMENT_3D ( 'NONE', #135, #286, #110 ) ;
#225 = CARTESIAN_POINT ( 'NONE',  ( 0.2499999999999985000, 0.0000000000000000000, 0.0000000000000000000 ) ) ;
#226 = ORIENTED_EDGE ( 'NONE', *, *, #292, .F. ) ;
#227 = VERTEX_POINT ( 'NONE', #146 ) ;
#228 = DIRECTION ( 'NONE',  ( 0.0000000000000000000, 0.0000000000000000000, 1.000000000000000000 ) ) ;
#229 = EDGE_CURVE ( 'NONE', #212, #133, #20, .T. ) ;
#230 = CARTESIAN_POINT ( 'NONE',  ( -8.199996225274759400, 0.0000000000000000000, 0.0000000000000000000 ) ) ;
#231 = CC_DESIGN_PERSON_AND_ORGANIZATION_ASSIGNMENT ( #31, #174, ( #222 ) ) ;
#232 = DIRECTION ( 'NONE',  ( 1.000000000000000000, 0.0000000000000000000, 0.0000000000000000000 ) ) ;
#233 = CARTESIAN_POINT ( 'NONE',  ( -1.000000000000000000, 0.0000000000000000000, 0.0000000000000000000 ) ) ;
#234 = LINE ( 'NONE', #47, #265 ) ;
#235 = LOCAL_TIME ( 10, 19, 3.000000000000000000, #132 ) ;
#236 = ADVANCED_FACE ( 'NONE', ( #196 ), #276, .T. ) ;
#237 = FACE_OUTER_BOUND ( 'NONE', #101, .T. ) ;
#238 = CARTESIAN_POINT ( 'NONE',  ( -8.199996225274759400, 0.0000000000000000000, 0.008333962454206735000 ) ) ;
#239 = FACE_OUTER_BOUND ( 'NONE', #108, .T. ) ;
#240 = ORIENTED_EDGE ( 'NONE', *, *, #229, .F. ) ;
#241 = DIRECTION ( 'NONE',  ( 0.0000000000000000000, 0.0000000000000000000, 1.000000000000000000 ) ) ;
#242 = VERTEX_POINT ( 'NONE', #189 ) ;
#243 = AXIS2_PLACEMENT_3D ( 'NONE', #225, #167, #228 ) ;
#244 = DIRECTION ( 'NONE',  ( 0.0000000000000000000, -1.224646799147353200E-016, 1.000000000000000000 ) ) ;
#245 = ORIENTED_EDGE ( 'NONE', *, *, #140, .T. ) ;
#246 = ORIENTED_EDGE ( 'NONE', *, *, #195, .T. ) ;
#247 = CIRCLE ( 'NONE', #41, 3.000000000000000400 ) ;
#248 = ORIENTED_EDGE ( 'NONE', *, *, #122, .F. ) ;
#250 = AXIS2_PLACEMENT_3D ( 'NONE', #278, #209, #199 ) ;
#249 = PERSON_AND_ORGANIZATION ( #71, #271 ) ;
#251 = DIRECTION ( 'NONE',  ( -1.000000000000000000, -0.0000000000000000000, -0.0000000000000000000 ) ) ;
#252 = DIRECTION ( 'NONE',  ( 0.0000000000000000000, 0.0000000000000000000, 1.000000000000000000 ) ) ;
#253 = ADVANCED_FACE ( 'NONE', ( #208 ), #9, .T. ) ;
#254 = PERSON_AND_ORGANIZATION_ROLE ( 'design_owner' ) ;
#255 = FACE_OUTER_BOUND ( 'NONE', #221, .T. ) ;
#256 = DIRECTION ( 'NONE',  ( -1.000000000000000000, -0.0000000000000000000, -0.0000000000000000000 ) ) ;
#257 = PERSON_AND_ORGANIZATION_ROLE ( 'creator' ) ;
#258 = ORIENTED_EDGE ( 'NONE', *, *, #55, .T. ) ;
#259 = DIRECTION ( 'NONE',  ( 0.0000000000000000000, 0.0000000000000000000, 1.000000000000000000 ) ) ;
#260 = AXIS2_PLACEMENT_3D ( 'NONE', #171, #65, #244 ) ;
#261 = PERSON_AND_ORGANIZATION ( #71, #271 ) ;
#262 = ORIENTED_EDGE ( 'NONE', *, *, #187, .T. ) ;
#263 = EDGE_LOOP ( 'NONE', ( #248, #106, #95, #141 ) ) ;
#264 = VECTOR ( 'NONE', #251, 1000.000000000000000 ) ;
#265 = VECTOR ( 'NONE', #97, 999.9999999999998900 ) ;
#266 = DIRECTION ( 'NONE',  ( 0.0000000000000000000, 0.0000000000000000000, 1.000000000000000000 ) ) ;
#267 = DIRECTION ( 'NONE',  ( -1.000000000000000000, -0.0000000000000000000, -0.0000000000000000000 ) ) ;
#268 = CARTESIAN_POINT ( 'NONE',  ( 0.2499999999999985000, 0.0000000000000000000, 0.0000000000000000000 ) ) ;
#269 = SHAPE_DEFINITION_REPRESENTATION ( #46, #118 ) ;
#270 = EDGE_CURVE ( 'NONE', #152, #198, #234, .T. ) ;
#271 = ORGANIZATION ( 'UNSPECIFIED', 'UNSPECIFIED', '' ) ;
#272 = DIRECTION ( 'NONE',  ( -1.000000000000000000, -0.0000000000000000000, -0.0000000000000000000 ) ) ;
#273 = AXIS2_PLACEMENT_3D ( 'NONE', #124, #96, #100 ) ;
#274 = PERSON_AND_ORGANIZATION ( #71, #271 ) ;
#275 = ORIENTED_EDGE ( 'NONE', *, *, #91, .F. ) ;
#276 = CYLINDRICAL_SURFACE ( 'NONE', #58, 3.000000000000000400 ) ;
#277 = CIRCLE ( 'NONE', #52, 2.750000000000000900 ) ;
#278 = CARTESIAN_POINT ( 'NONE',  ( -1.000000000000000000, 0.0000000000000000000, 0.0000000000000000000 ) ) ;
#279 = AXIS2_PLACEMENT_3D ( 'NONE', #238, #142, #301 ) ;
#280 =( NAMED_UNIT ( * ) PLANE_ANGLE_UNIT ( ) SI_UNIT ( $, .RADIAN. ) );
#281 = CARTESIAN_POINT ( 'NONE',  ( -1.000000000000000000, 3.673940397442060400E-016, -3.000000000000000400 ) ) ;
#282 = CIRCLE ( 'NONE', #273, 3.000000000000000400 ) ;
#283 =( LENGTH_UNIT ( ) NAMED_UNIT ( * ) SI_UNIT ( .MILLI., .METRE. ) );
#284 = FACE_OUTER_BOUND ( 'NONE', #156, .T. ) ;
#285 = ORIENTED_EDGE ( 'NONE', *, *, #217, .T. ) ;
#286 = DIRECTION ( 'NONE',  ( -1.000000000000000000, -0.0000000000000000000, -0.0000000000000000000 ) ) ;
#287 =( NAMED_UNIT ( * ) SI_UNIT ( $, .STERADIAN. ) SOLID_ANGLE_UNIT ( ) );
#288 = DATE_AND_TIME ( #105, #193 ) ;
#289 = APPROVAL_ROLE ( '' ) ;
#290 = AXIS2_PLACEMENT_3D ( 'NONE', #123, #129, #11 ) ;
#291 = CARTESIAN_POINT ( 'NONE',  ( -0.7499999999999997800, 3.673940397442060400E-016, -3.000000000000000400 ) ) ;
#292 = EDGE_CURVE ( 'NONE', #212, #38, #296, .T. ) ;
#293 = CARTESIAN_POINT ( 'NONE',  ( 0.2499999999999985000, 0.0000000000000000000, 0.0000000000000000000 ) ) ;
#294 = CC_DESIGN_DATE_AND_TIME_ASSIGNMENT ( #2, #179, ( #213 ) ) ;
#295 = CARTESIAN_POINT ( 'NONE',  ( 0.2499999999999985000, 3.673940397442060400E-016, -3.000000000000000400 ) ) ;
#296 = CIRCLE ( 'NONE', #98, 3.000000000000000400 ) ;
#297 = APPROVAL_PERSON_ORGANIZATION ( #182, #153, #68 ) ;
#298 = DATE_AND_TIME ( #126, #25 ) ;
#299 = APPLICATION_PROTOCOL_DEFINITION ( 'international standard', 'config_control_design', 1994, #107 ) ;
#300 = CARTESIAN_POINT ( 'NONE',  ( -0.7499999999999997800, 0.0000000000000000000, 0.0000000000000000000 ) ) ;
#301 = DIRECTION ( 'NONE',  ( 0.0000000000000000000, 0.0000000000000000000, -1.000000000000000000 ) ) ;
ENDSEC;
END-ISO-10303-21;
