ISO-10303-21;
HEADER;
FILE_DESCRIPTION (( 'STEP AP203' ),
    '1' );
FILE_NAME ('Web Model 15404_15422.step',
    '2022-03-11T18:22:42',
    ( '' ),
    ( '' ),
    'SwSTEP 2.0',
    'SolidWorks 2021',
    '' );
FILE_SCHEMA (( 'CONFIG_CONTROL_DESIGN' ));
ENDSEC;

DATA;
#1 = ADVANCED_FACE ( 'NONE', ( #82 ), #41, .F. ) ;
#2 = AXIS2_PLACEMENT_3D ( 'NONE', #162, #136, #113 ) ;
#3 = ORIENTED_EDGE ( 'NONE', *, *, #19, .T. ) ;
#4 = APPROVAL_DATE_TIME ( #39, #62 ) ;
#5 = DIRECTION ( 'NONE',  ( -1.000000000000000000, -0.000000000000000000, -0.000000000000000000 ) ) ;
#6 = EDGE_LOOP ( 'NONE', ( #3, #31 ) ) ;
#7 = SHAPE_DEFINITION_REPRESENTATION ( #143, #84 ) ;
#8 = CARTESIAN_POINT ( 'NONE',  ( -2.500000000000000000, 0.000000000000000000, 0.000000000000000000 ) ) ;
#9 = AXIS2_PLACEMENT_3D ( 'NONE', #34, #144, #173 ) ;
#10 = DIRECTION ( 'NONE',  ( -1.000000000000000000, -0.000000000000000000, -0.000000000000000000 ) ) ;
#11 = ADVANCED_FACE ( 'NONE', ( #18 ), #73, .T. ) ;
#12 = APPLICATION_CONTEXT ( 'configuration controlled 3d designs of mechanical parts and assemblies' ) ;
#13 = PERSON_AND_ORGANIZATION_ROLE ( 'design_supplier' ) ;
#14 = DESIGN_CONTEXT ( 'detailed design', #12, 'design' ) ;
#15 = APPROVAL_DATE_TIME ( #132, #54 ) ;
#16 = DATE_AND_TIME ( #105, #72 ) ;
#17 = PRODUCT_RELATED_PRODUCT_CATEGORY ( 'detail', '', ( #169 ) ) ;
#18 = FACE_OUTER_BOUND ( 'NONE', #30, .T. ) ;
#19 = EDGE_CURVE ( 'NONE', #85, #71, #123, .T. ) ;
#20 = DIRECTION ( 'NONE',  ( 0.000000000000000000, 0.000000000000000000, -1.000000000000000000 ) ) ;
#21 = AXIS2_PLACEMENT_3D ( 'NONE', #8, #60, #153 ) ;
#22 = APPLICATION_PROTOCOL_DEFINITION ( 'international standard', 'config_control_design', 1994, #142 ) ;
#23 = CIRCLE ( 'NONE', #21, 25.39999999999999858 ) ;
#24 = VECTOR ( 'NONE', #10, 1000.000000000000000 ) ;
#25 = ORIENTED_EDGE ( 'NONE', *, *, #91, .F. ) ;
#26 = CC_DESIGN_PERSON_AND_ORGANIZATION_ASSIGNMENT ( #37, #29, ( #103 ) ) ;
#27 = DATE_AND_TIME ( #120, #51 ) ;
#28 = APPROVAL_STATUS ( 'not_yet_approved' ) ;
#29 = PERSON_AND_ORGANIZATION_ROLE ( 'creator' ) ;
#30 = EDGE_LOOP ( 'NONE', ( #121, #150, #110, #114 ) ) ;
#31 = ORIENTED_EDGE ( 'NONE', *, *, #111, .T. ) ;
#32 = FACE_OUTER_BOUND ( 'NONE', #107, .T. ) ;
#33 = PERSON_AND_ORGANIZATION_ROLE ( 'design_owner' ) ;
#34 = CARTESIAN_POINT ( 'NONE',  ( 2.500000000000000000, 0.000000000000000000, 0.000000000000000000 ) ) ;
#35 = APPROVAL_PERSON_ORGANIZATION ( #42, #54, #76 ) ;
#36 = AXIS2_PLACEMENT_3D ( 'NONE', #127, #131, #77 ) ;
#37 = PERSON_AND_ORGANIZATION ( #50, #65 ) ;
#38 = SECURITY_CLASSIFICATION ( '', '', #109 ) ;
#39 = DATE_AND_TIME ( #161, #108 ) ;
#40 = PERSON_AND_ORGANIZATION ( #50, #65 ) ;
#41 = PLANE ( 'NONE',  #2 ) ;
#42 = PERSON_AND_ORGANIZATION ( #50, #65 ) ;
#43 = CARTESIAN_POINT ( 'NONE',  ( 2.500000000000000000, 3.110602869834276865E-15, -25.39999999999999858 ) ) ;
#44 = CARTESIAN_POINT ( 'NONE',  ( 2.500000000000000000, 0.000000000000000000, 25.39999999999999858 ) ) ;
#45 = UNCERTAINTY_MEASURE_WITH_UNIT (LENGTH_MEASURE( 1.000000000000000082E-05 ), #98, 'distance_accuracy_value', 'NONE');
#46 =( GEOMETRIC_REPRESENTATION_CONTEXT ( 3 ) GLOBAL_UNCERTAINTY_ASSIGNED_CONTEXT ( ( #45 ) ) GLOBAL_UNIT_ASSIGNED_CONTEXT ( ( #98, #158, #146 ) ) REPRESENTATION_CONTEXT ( 'NONE', 'WORKASPACE' ) );
#47 = APPROVAL ( #28, 'UNSPECIFIED' ) ;
#48 = CARTESIAN_POINT ( 'NONE',  ( -2.500000000000000000, 0.000000000000000000, 0.000000000000000000 ) ) ;
#49 = CIRCLE ( 'NONE', #117, 25.39999999999999858 ) ;
#50 = PERSON ( 'UNSPECIFIED', 'UNSPECIFIED', 'UNSPECIFIED', ('UNSPECIFIED'), ('UNSPECIFIED'), ('UNSPECIFIED') ) ;
#51 = LOCAL_TIME ( 13, 22, 42.00000000000000000, #68 ) ;
#52 = PERSON_AND_ORGANIZATION ( #50, #65 ) ;
#53 = APPROVAL_ROLE ( '' ) ;
#54 = APPROVAL ( #138, 'UNSPECIFIED' ) ;
#55 = LOCAL_TIME ( 13, 22, 42.00000000000000000, #81 ) ;
#56 = COORDINATED_UNIVERSAL_TIME_OFFSET ( 5, 0, .BEHIND. ) ;
#57 = EDGE_LOOP ( 'NONE', ( #58, #167 ) ) ;
#58 = ORIENTED_EDGE ( 'NONE', *, *, #79, .F. ) ;
#59 = LOCAL_TIME ( 13, 22, 42.00000000000000000, #61 ) ;
#60 = DIRECTION ( 'NONE',  ( 1.000000000000000000, 0.000000000000000000, 0.000000000000000000 ) ) ;
#61 = COORDINATED_UNIVERSAL_TIME_OFFSET ( 5, 0, .BEHIND. ) ;
#62 = APPROVAL ( #106, 'UNSPECIFIED' ) ;
#63 = ADVANCED_FACE ( 'NONE', ( #170 ), #66, .T. ) ;
#64 = DIRECTION ( 'NONE',  ( 0.000000000000000000, 0.000000000000000000, -1.000000000000000000 ) ) ;
#65 = ORGANIZATION ( 'UNSPECIFIED', 'UNSPECIFIED', '' ) ;
#66 = PLANE ( 'NONE',  #104 ) ;
#67 = CC_DESIGN_SECURITY_CLASSIFICATION ( #38, ( #103 ) ) ;
#68 = COORDINATED_UNIVERSAL_TIME_OFFSET ( 5, 0, .BEHIND. ) ;
#69 = PERSON_AND_ORGANIZATION_ROLE ( 'classification_officer' ) ;
#70 = VERTEX_POINT ( 'NONE', #86 ) ;
#71 = VERTEX_POINT ( 'NONE', #152 ) ;
#72 = LOCAL_TIME ( 13, 22, 42.00000000000000000, #124 ) ;
#73 = CYLINDRICAL_SURFACE ( 'NONE', #137, 25.39999999999999858 ) ;
#74 = CARTESIAN_POINT ( 'NONE',  ( 2.500000000000000000, 0.000000000000000000, 0.000000000000000000 ) ) ;
#75 = DATE_AND_TIME ( #135, #55 ) ;
#76 = APPROVAL_ROLE ( '' ) ;
#77 = DIRECTION ( 'NONE',  ( 1.000000000000000000, 0.000000000000000000, 0.000000000000000000 ) ) ;
#78 = APPLICATION_PROTOCOL_DEFINITION ( 'international standard', 'config_control_design', 1994, #12 ) ;
#79 = EDGE_CURVE ( 'NONE', #80, #70, #23, .T. ) ;
#80 = VERTEX_POINT ( 'NONE', #100 ) ;
#81 = COORDINATED_UNIVERSAL_TIME_OFFSET ( 5, 0, .BEHIND. ) ;
#82 = FACE_OUTER_BOUND ( 'NONE', #57, .T. ) ;
#83 = CIRCLE ( 'NONE', #172, 25.39999999999999858 ) ;
#84 = ADVANCED_BREP_SHAPE_REPRESENTATION ( 'Web Model 15404_15422', ( #156, #36 ), #46 ) ;
#85 = VERTEX_POINT ( 'NONE', #97 ) ;
#86 = CARTESIAN_POINT ( 'NONE',  ( -2.500000000000000000, 3.110602869834276865E-15, -25.39999999999999858 ) ) ;
#87 = CLOSED_SHELL ( 'NONE', ( #122, #11, #63, #1 ) ) ;
#88 = DIRECTION ( 'NONE',  ( 1.000000000000000000, 0.000000000000000000, 0.000000000000000000 ) ) ;
#89 = DIRECTION ( 'NONE',  ( 1.000000000000000000, 0.000000000000000000, 0.000000000000000000 ) ) ;
#90 = CC_DESIGN_DATE_AND_TIME_ASSIGNMENT ( #16, #93, ( #95 ) ) ;
#91 = EDGE_CURVE ( 'NONE', #85, #80, #159, .T. ) ;
#92 = AXIS2_PLACEMENT_3D ( 'NONE', #74, #102, #128 ) ;
#93 = DATE_TIME_ROLE ( 'creation_date' ) ;
#94 = PERSON_AND_ORGANIZATION ( #50, #65 ) ;
#95 = PRODUCT_DEFINITION ( 'UNKNOWN', '', #103, #14 ) ;
#96 = ORIENTED_EDGE ( 'NONE', *, *, #155, .T. ) ;
#97 = CARTESIAN_POINT ( 'NONE',  ( 2.500000000000000000, 0.000000000000000000, 25.39999999999999858 ) ) ;
#98 =( LENGTH_UNIT ( ) NAMED_UNIT ( * ) SI_UNIT ( .MILLI., .METRE. ) );
#99 = VECTOR ( 'NONE', #118, 1000.000000000000000 ) ;
#100 = CARTESIAN_POINT ( 'NONE',  ( -2.500000000000000000, 0.000000000000000000, 25.39999999999999858 ) ) ;
#101 = CARTESIAN_POINT ( 'NONE',  ( 2.500000000000000000, 0.000000000000000000, 0.000000000000000000 ) ) ;
#102 = DIRECTION ( 'NONE',  ( 1.000000000000000000, 0.000000000000000000, 0.000000000000000000 ) ) ;
#103 = PRODUCT_DEFINITION_FORMATION_WITH_SPECIFIED_SOURCE ( 'ANY', '', #169, .NOT_KNOWN. ) ;
#104 = AXIS2_PLACEMENT_3D ( 'NONE', #119, #88, #64 ) ;
#105 = CALENDAR_DATE ( 2022, 11, 3 ) ;
#106 = APPROVAL_STATUS ( 'not_yet_approved' ) ;
#107 = EDGE_LOOP ( 'NONE', ( #134, #96, #164, #25 ) ) ;
#108 = LOCAL_TIME ( 13, 22, 42.00000000000000000, #56 ) ;
#109 = SECURITY_CLASSIFICATION_LEVEL ( 'unclassified' ) ;
#110 = ORIENTED_EDGE ( 'NONE', *, *, #91, .T. ) ;
#111 = EDGE_CURVE ( 'NONE', #71, #85, #49, .T. ) ;
#112 = PERSON_AND_ORGANIZATION ( #50, #65 ) ;
#113 = DIRECTION ( 'NONE',  ( 0.000000000000000000, 0.000000000000000000, -1.000000000000000000 ) ) ;
#114 = ORIENTED_EDGE ( 'NONE', *, *, #79, .T. ) ;
#115 = CALENDAR_DATE ( 2022, 11, 3 ) ;
#116 = MECHANICAL_CONTEXT ( 'NONE', #142, 'mechanical' ) ;
#117 = AXIS2_PLACEMENT_3D ( 'NONE', #101, #141, #171 ) ;
#118 = DIRECTION ( 'NONE',  ( -1.000000000000000000, -0.000000000000000000, -0.000000000000000000 ) ) ;
#119 = CARTESIAN_POINT ( 'NONE',  ( 2.500000000000000000, 0.000000000000000000, 0.000000000000000000 ) ) ;
#120 = CALENDAR_DATE ( 2022, 11, 3 ) ;
#121 = ORIENTED_EDGE ( 'NONE', *, *, #155, .F. ) ;
#122 = ADVANCED_FACE ( 'NONE', ( #32 ), #157, .T. ) ;
#123 = CIRCLE ( 'NONE', #92, 25.39999999999999858 ) ;
#124 = COORDINATED_UNIVERSAL_TIME_OFFSET ( 5, 0, .BEHIND. ) ;
#125 = CARTESIAN_POINT ( 'NONE',  ( 2.500000000000000000, 0.000000000000000000, 0.000000000000000000 ) ) ;
#126 = APPROVAL_DATE_TIME ( #75, #47 ) ;
#127 = CARTESIAN_POINT ( 'NONE',  ( 0.000000000000000000, 0.000000000000000000, 0.000000000000000000 ) ) ;
#128 = DIRECTION ( 'NONE',  ( 0.000000000000000000, 0.000000000000000000, -1.000000000000000000 ) ) ;
#129 = CC_DESIGN_PERSON_AND_ORGANIZATION_ASSIGNMENT ( #112, #133, ( #95 ) ) ;
#130 = CC_DESIGN_PERSON_AND_ORGANIZATION_ASSIGNMENT ( #168, #33, ( #169 ) ) ;
#131 = DIRECTION ( 'NONE',  ( 0.000000000000000000, 0.000000000000000000, 1.000000000000000000 ) ) ;
#132 = DATE_AND_TIME ( #115, #59 ) ;
#133 = PERSON_AND_ORGANIZATION_ROLE ( 'creator' ) ;
#134 = ORIENTED_EDGE ( 'NONE', *, *, #111, .F. ) ;
#135 = CALENDAR_DATE ( 2022, 11, 3 ) ;
#136 = DIRECTION ( 'NONE',  ( 1.000000000000000000, 0.000000000000000000, 0.000000000000000000 ) ) ;
#137 = AXIS2_PLACEMENT_3D ( 'NONE', #125, #5, #166 ) ;
#138 = APPROVAL_STATUS ( 'not_yet_approved' ) ;
#139 = APPROVAL_PERSON_ORGANIZATION ( #52, #62, #165 ) ;
#140 = CC_DESIGN_PERSON_AND_ORGANIZATION_ASSIGNMENT ( #94, #69, ( #38 ) ) ;
#141 = DIRECTION ( 'NONE',  ( 1.000000000000000000, 0.000000000000000000, 0.000000000000000000 ) ) ;
#142 = APPLICATION_CONTEXT ( 'configuration controlled 3d designs of mechanical parts and assemblies' ) ;
#143 = PRODUCT_DEFINITION_SHAPE ( 'NONE', 'NONE',  #95 ) ;
#144 = DIRECTION ( 'NONE',  ( -1.000000000000000000, -0.000000000000000000, -0.000000000000000000 ) ) ;
#145 = EDGE_CURVE ( 'NONE', #70, #80, #83, .T. ) ;
#146 =( NAMED_UNIT ( * ) SI_UNIT ( $, .STERADIAN. ) SOLID_ANGLE_UNIT ( ) );
#147 = LINE ( 'NONE', #43, #24 ) ;
#148 = CC_DESIGN_APPROVAL ( #54, ( #95 ) ) ;
#149 = PERSON_AND_ORGANIZATION ( #50, #65 ) ;
#150 = ORIENTED_EDGE ( 'NONE', *, *, #19, .F. ) ;
#151 = APPROVAL_PERSON_ORGANIZATION ( #149, #47, #53 ) ;
#152 = CARTESIAN_POINT ( 'NONE',  ( 2.500000000000000000, 3.110602869834276865E-15, -25.39999999999999858 ) ) ;
#153 = DIRECTION ( 'NONE',  ( 0.000000000000000000, 0.000000000000000000, -1.000000000000000000 ) ) ;
#154 = CC_DESIGN_APPROVAL ( #47, ( #38 ) ) ;
#155 = EDGE_CURVE ( 'NONE', #71, #70, #147, .T. ) ;
#156 = MANIFOLD_SOLID_BREP ( 'Boss-Extrude1', #87 ) ;
#157 = CYLINDRICAL_SURFACE ( 'NONE', #9, 25.39999999999999858 ) ;
#158 =( NAMED_UNIT ( * ) PLANE_ANGLE_UNIT ( ) SI_UNIT ( $, .RADIAN. ) );
#159 = LINE ( 'NONE', #44, #99 ) ;
#160 = CC_DESIGN_APPROVAL ( #62, ( #103 ) ) ;
#161 = CALENDAR_DATE ( 2022, 11, 3 ) ;
#162 = CARTESIAN_POINT ( 'NONE',  ( -2.500000000000000000, 0.000000000000000000, 0.000000000000000000 ) ) ;
#163 = DATE_TIME_ROLE ( 'classification_date' ) ;
#164 = ORIENTED_EDGE ( 'NONE', *, *, #145, .T. ) ;
#165 = APPROVAL_ROLE ( '' ) ;
#166 = DIRECTION ( 'NONE',  ( 0.000000000000000000, 0.000000000000000000, 1.000000000000000000 ) ) ;
#167 = ORIENTED_EDGE ( 'NONE', *, *, #145, .F. ) ;
#168 = PERSON_AND_ORGANIZATION ( #50, #65 ) ;
#169 = PRODUCT ( 'Web Model 15404_15422', 'Web Model 15404_15422', '', ( #116 ) ) ;
#170 = FACE_OUTER_BOUND ( 'NONE', #6, .T. ) ;
#171 = DIRECTION ( 'NONE',  ( 0.000000000000000000, 0.000000000000000000, -1.000000000000000000 ) ) ;
#172 = AXIS2_PLACEMENT_3D ( 'NONE', #48, #89, #20 ) ;
#173 = DIRECTION ( 'NONE',  ( 0.000000000000000000, 0.000000000000000000, 1.000000000000000000 ) ) ;
#174 = CC_DESIGN_PERSON_AND_ORGANIZATION_ASSIGNMENT ( #40, #13, ( #103 ) ) ;
#175 = CC_DESIGN_DATE_AND_TIME_ASSIGNMENT ( #27, #163, ( #38 ) ) ;
ENDSEC;
END-ISO-10303-21;
