ISO-10303-21;
HEADER;
FILE_DESCRIPTION (( 'STEP AP203' ),
    '1' );
FILE_NAME ('Web Model 68434.STEP',
    '2017-01-31T20:04:17',
    ( '' ),
    ( '' ),
    'SwSTEP 2.0',
    'SolidWorks 2016',
    '' );
FILE_SCHEMA (( 'CONFIG_CONTROL_DESIGN' ));
ENDSEC;

DATA;
#1 = EDGE_CURVE ( 'NONE', #111, #5, #71, .T. ) ;
#2 = ORIENTED_EDGE ( 'NONE', *, *, #21, .F. ) ;
#3 = APPROVAL ( #235, 'UNSPECIFIED' ) ;
#4 = CARTESIAN_POINT ( 'NONE',  ( 37.50000000000000000, 37.49999999999999300, 0.0000000000000000000 ) ) ;
#5 = VERTEX_POINT ( 'NONE', #4 ) ;
#6 = CARTESIAN_POINT ( 'NONE',  ( 37.50000000000000000, 37.49999999999999300, 0.0000000000000000000 ) ) ;
#7 = PLANE ( 'NONE',  #108 ) ;
#8 = DIRECTION ( 'NONE',  ( 9.251858538542971600E-017, -1.000000000000000000, 0.0000000000000000000 ) ) ;
#9 = LINE ( 'NONE', #233, #148 ) ;
#10 = ORIENTED_EDGE ( 'NONE', *, *, #1, .F. ) ;
#11 =( LENGTH_UNIT ( ) NAMED_UNIT ( * ) SI_UNIT ( .MILLI., .METRE. ) );
#12 = APPROVAL_STATUS ( 'not_yet_approved' ) ;
#13 = DATE_AND_TIME ( #110, #127 ) ;
#14 = ORIENTED_EDGE ( 'NONE', *, *, #59, .T. ) ;
#15 = CARTESIAN_POINT ( 'NONE',  ( 37.50000000000000000, 37.49999999999999300, 3.000000000000000000 ) ) ;
#16 =( GEOMETRIC_REPRESENTATION_CONTEXT ( 3 ) GLOBAL_UNCERTAINTY_ASSIGNED_CONTEXT ( ( #145 ) ) GLOBAL_UNIT_ASSIGNED_CONTEXT ( ( #11, #63, #176 ) ) REPRESENTATION_CONTEXT ( 'NONE', 'WORKASPACE' ) );
#17 = PERSON_AND_ORGANIZATION ( #167, #77 ) ;
#18 = VECTOR ( 'NONE', #116, 1000.000000000000000 ) ;
#19 = CALENDAR_DATE ( 2017, 31, 1 ) ;
#20 = ORIENTED_EDGE ( 'NONE', *, *, #151, .T. ) ;
#21 = EDGE_CURVE ( 'NONE', #75, #111, #197, .T. ) ;
#22 = LINE ( 'NONE', #210, #213 ) ;
#23 = ORIENTED_EDGE ( 'NONE', *, *, #21, .T. ) ;
#24 = CARTESIAN_POINT ( 'NONE',  ( -37.50000000000000700, 37.49999999999999300, 3.000000000000000000 ) ) ;
#25 = AXIS2_PLACEMENT_3D ( 'NONE', #15, #209, #80 ) ;
#26 = PERSON_AND_ORGANIZATION ( #167, #77 ) ;
#27 = EDGE_LOOP ( 'NONE', ( #199, #194, #112, #141 ) ) ;
#28 = CARTESIAN_POINT ( 'NONE',  ( -37.50000000000000000, -37.50000000000000700, 3.000000000000000000 ) ) ;
#29 = PLANE ( 'NONE',  #171 ) ;
#30 = CARTESIAN_POINT ( 'NONE',  ( 0.0000000000000000000, 0.0000000000000000000, 0.0000000000000000000 ) ) ;
#31 = ORIENTED_EDGE ( 'NONE', *, *, #35, .T. ) ;
#32 = CC_DESIGN_APPROVAL ( #58, ( #109 ) ) ;
#33 = DIRECTION ( 'NONE',  ( 9.251858538542971600E-017, -1.000000000000000000, 0.0000000000000000000 ) ) ;
#34 = APPROVAL_ROLE ( '' ) ;
#35 = EDGE_CURVE ( 'NONE', #114, #216, #48, .T. ) ;
#36 = CARTESIAN_POINT ( 'NONE',  ( 37.50000000000000000, 37.49999999999999300, 3.000000000000000000 ) ) ;
#37 = CALENDAR_DATE ( 2017, 31, 1 ) ;
#38 = SECURITY_CLASSIFICATION_LEVEL ( 'unclassified' ) ;
#39 = CC_DESIGN_DATE_AND_TIME_ASSIGNMENT ( #73, #231, ( #109 ) ) ;
#40 = VERTEX_POINT ( 'NONE', #142 ) ;
#41 = DATE_AND_TIME ( #37, #60 ) ;
#42 = EDGE_CURVE ( 'NONE', #136, #5, #185, .T. ) ;
#43 = ADVANCED_FACE ( 'NONE', ( #163 ), #79, .F. ) ;
#44 = EDGE_LOOP ( 'NONE', ( #56, #204, #61, #92 ) ) ;
#45 = VECTOR ( 'NONE', #54, 1000.000000000000000 ) ;
#46 = CARTESIAN_POINT ( 'NONE',  ( -37.50000000000000000, -37.50000000000000700, 0.0000000000000000000 ) ) ;
#47 = DIRECTION ( 'NONE',  ( 0.0000000000000000000, -0.0000000000000000000, -1.000000000000000000 ) ) ;
#48 = LINE ( 'NONE', #203, #236 ) ;
#49 = DIRECTION ( 'NONE',  ( 0.0000000000000000000, 0.0000000000000000000, 1.000000000000000000 ) ) ;
#50 = APPROVAL_ROLE ( '' ) ;
#51 = DIRECTION ( 'NONE',  ( -0.0000000000000000000, -0.0000000000000000000, -1.000000000000000000 ) ) ;
#52 = VECTOR ( 'NONE', #119, 1000.000000000000000 ) ;
#53 = ORIENTED_EDGE ( 'NONE', *, *, #98, .F. ) ;
#54 = DIRECTION ( 'NONE',  ( -0.0000000000000000000, -0.0000000000000000000, -1.000000000000000000 ) ) ;
#55 = VECTOR ( 'NONE', #174, 1000.000000000000000 ) ;
#56 = ORIENTED_EDGE ( 'NONE', *, *, #232, .T. ) ;
#57 = DIRECTION ( 'NONE',  ( 0.0000000000000000000, 0.0000000000000000000, -1.000000000000000000 ) ) ;
#58 = APPROVAL ( #12, 'UNSPECIFIED' ) ;
#59 = EDGE_CURVE ( 'NONE', #75, #136, #220, .T. ) ;
#60 = LOCAL_TIME ( 15, 4, 17.00000000000000000, #132 ) ;
#61 = ORIENTED_EDGE ( 'NONE', *, *, #35, .F. ) ;
#62 = DESIGN_CONTEXT ( 'detailed design', #102, 'design' ) ;
#63 =( NAMED_UNIT ( * ) PLANE_ANGLE_UNIT ( ) SI_UNIT ( $, .RADIAN. ) );
#64 = DIRECTION ( 'NONE',  ( 1.000000000000000000, 0.0000000000000000000, 0.0000000000000000000 ) ) ;
#65 = ORIENTED_EDGE ( 'NONE', *, *, #151, .F. ) ;
#66 = CALENDAR_DATE ( 2017, 31, 1 ) ;
#67 = ORIENTED_EDGE ( 'NONE', *, *, #237, .F. ) ;
#68 = DATE_TIME_ROLE ( 'classification_date' ) ;
#69 = CC_DESIGN_PERSON_AND_ORGANIZATION_ASSIGNMENT ( #161, #160, ( #150 ) ) ;
#70 = COORDINATED_UNIVERSAL_TIME_OFFSET ( 5, 0, .BEHIND. ) ;
#71 = LINE ( 'NONE', #128, #149 ) ;
#72 = CARTESIAN_POINT ( 'NONE',  ( 37.50000000000000000, 37.49999999999999300, 3.000000000000000000 ) ) ;
#73 = DATE_AND_TIME ( #187, #205 ) ;
#74 = ADVANCED_FACE ( 'NONE', ( #224 ), #226, .F. ) ;
#75 = VERTEX_POINT ( 'NONE', #153 ) ;
#76 = CARTESIAN_POINT ( 'NONE',  ( 37.50000000000000000, -37.49999999999999300, 0.0000000000000000000 ) ) ;
#77 = ORGANIZATION ( 'UNSPECIFIED', 'UNSPECIFIED', '' ) ;
#78 = CARTESIAN_POINT ( 'NONE',  ( -37.50000000000000700, 37.49999999999999300, 0.0000000000000000000 ) ) ;
#79 = PLANE ( 'NONE',  #164 ) ;
#80 = DIRECTION ( 'NONE',  ( 0.0000000000000000000, 0.0000000000000000000, 1.000000000000000000 ) ) ;
#81 = APPLICATION_CONTEXT ( 'configuration controlled 3d designs of mechanical parts and assemblies' ) ;
#82 = CLOSED_SHELL ( 'NONE', ( #43, #147, #217, #202, #74, #166 ) ) ;
#83 = PERSON_AND_ORGANIZATION ( #167, #77 ) ;
#84 = CC_DESIGN_APPROVAL ( #126, ( #120 ) ) ;
#85 = APPROVAL_ROLE ( '' ) ;
#86 = ORIENTED_EDGE ( 'NONE', *, *, #228, .T. ) ;
#87 = PERSON_AND_ORGANIZATION_ROLE ( 'design_supplier' ) ;
#88 = CC_DESIGN_SECURITY_CLASSIFICATION ( #172, ( #120 ) ) ;
#89 = PRODUCT_DEFINITION_SHAPE ( 'NONE', 'NONE',  #109 ) ;
#90 = APPROVAL_PERSON_ORGANIZATION ( #137, #126, #34 ) ;
#91 = FACE_OUTER_BOUND ( 'NONE', #146, .T. ) ;
#92 = ORIENTED_EDGE ( 'NONE', *, *, #211, .T. ) ;
#93 = CARTESIAN_POINT ( 'NONE',  ( 37.50000000000000000, 37.49999999999999300, 0.0000000000000000000 ) ) ;
#94 = DATE_AND_TIME ( #66, #143 ) ;
#95 = AXIS2_PLACEMENT_3D ( 'NONE', #30, #49, #64 ) ;
#96 = CARTESIAN_POINT ( 'NONE',  ( 37.50000000000000000, -37.49999999999999300, 3.000000000000000000 ) ) ;
#97 = CARTESIAN_POINT ( 'NONE',  ( 37.50000000000000000, 37.49999999999999300, 3.000000000000000000 ) ) ;
#98 = EDGE_CURVE ( 'NONE', #5, #175, #215, .T. ) ;
#99 = CARTESIAN_POINT ( 'NONE',  ( -37.50000000000000700, 37.49999999999999300, 3.000000000000000000 ) ) ;
#100 = COORDINATED_UNIVERSAL_TIME_OFFSET ( 5, 0, .BEHIND. ) ;
#101 = APPLICATION_PROTOCOL_DEFINITION ( 'international standard', 'config_control_design', 1994, #102 ) ;
#102 = APPLICATION_CONTEXT ( 'configuration controlled 3d designs of mechanical parts and assemblies' ) ;
#103 = PERSON_AND_ORGANIZATION ( #167, #77 ) ;
#104 = DIRECTION ( 'NONE',  ( 0.0000000000000000000, -1.000000000000000000, 0.0000000000000000000 ) ) ;
#105 = APPROVAL_PERSON_ORGANIZATION ( #17, #3, #85 ) ;
#106 = LINE ( 'NONE', #157, #52 ) ;
#107 = PERSON_AND_ORGANIZATION_ROLE ( 'classification_officer' ) ;
#108 = AXIS2_PLACEMENT_3D ( 'NONE', #46, #208, #169 ) ;
#109 = PRODUCT_DEFINITION ( 'UNKNOWN', '', #120, #62 ) ;
#110 = CALENDAR_DATE ( 2017, 31, 1 ) ;
#111 = VERTEX_POINT ( 'NONE', #97 ) ;
#112 = ORIENTED_EDGE ( 'NONE', *, *, #228, .F. ) ;
#113 = VECTOR ( 'NONE', #173, 1000.000000000000000 ) ;
#114 = VERTEX_POINT ( 'NONE', #99 ) ;
#115 = COORDINATED_UNIVERSAL_TIME_OFFSET ( 5, 0, .BEHIND. ) ;
#116 = DIRECTION ( 'NONE',  ( 1.000000000000000000, 1.850371707708594300E-016, -0.0000000000000000000 ) ) ;
#117 = ORIENTED_EDGE ( 'NONE', *, *, #59, .F. ) ;
#118 = ADVANCED_BREP_SHAPE_REPRESENTATION ( 'Web Model 68434', ( #186, #95 ), #16 ) ;
#119 = DIRECTION ( 'NONE',  ( -0.0000000000000000000, -0.0000000000000000000, -1.000000000000000000 ) ) ;
#120 = PRODUCT_DEFINITION_FORMATION_WITH_SPECIFIED_SOURCE ( 'ANY', '', #150, .NOT_KNOWN. ) ;
#121 = APPLICATION_PROTOCOL_DEFINITION ( 'international standard', 'config_control_design', 1994, #81 ) ;
#122 = EDGE_LOOP ( 'NONE', ( #31, #222, #23, #86 ) ) ;
#123 = PLANE ( 'NONE',  #25 ) ;
#124 = APPROVAL_STATUS ( 'not_yet_approved' ) ;
#125 = CARTESIAN_POINT ( 'NONE',  ( -37.50000000000000000, -37.50000000000000700, 3.000000000000000000 ) ) ;
#126 = APPROVAL ( #124, 'UNSPECIFIED' ) ;
#127 = LOCAL_TIME ( 15, 4, 17.00000000000000000, #100 ) ;
#128 = CARTESIAN_POINT ( 'NONE',  ( 37.50000000000000000, 37.49999999999999300, 3.000000000000000000 ) ) ;
#129 = SHAPE_DEFINITION_REPRESENTATION ( #89, #118 ) ;
#130 = ORIENTED_EDGE ( 'NONE', *, *, #200, .T. ) ;
#131 = DIRECTION ( 'NONE',  ( 1.000000000000000000, 9.251858538542970300E-017, -0.0000000000000000000 ) ) ;
#132 = COORDINATED_UNIVERSAL_TIME_OFFSET ( 5, 0, .BEHIND. ) ;
#133 = CC_DESIGN_PERSON_AND_ORGANIZATION_ASSIGNMENT ( #103, #177, ( #109 ) ) ;
#134 = CARTESIAN_POINT ( 'NONE',  ( 37.50000000000000000, -37.49999999999999300, 3.000000000000000000 ) ) ;
#135 = CARTESIAN_POINT ( 'NONE',  ( 37.50000000000000000, 37.49999999999999300, 3.000000000000000000 ) ) ;
#136 = VERTEX_POINT ( 'NONE', #76 ) ;
#137 = PERSON_AND_ORGANIZATION ( #167, #77 ) ;
#138 = LINE ( 'NONE', #227, #18 ) ;
#139 = AXIS2_PLACEMENT_3D ( 'NONE', #28, #57, #155 ) ;
#140 = LINE ( 'NONE', #36, #113 ) ;
#141 = ORIENTED_EDGE ( 'NONE', *, *, #1, .T. ) ;
#142 = CARTESIAN_POINT ( 'NONE',  ( -37.50000000000000000, -37.50000000000000700, 0.0000000000000000000 ) ) ;
#143 = LOCAL_TIME ( 15, 4, 17.00000000000000000, #70 ) ;
#144 = COORDINATED_UNIVERSAL_TIME_OFFSET ( 5, 0, .BEHIND. ) ;
#145 = UNCERTAINTY_MEASURE_WITH_UNIT (LENGTH_MEASURE( 1.000000000000000100E-005 ), #11, 'distance_accuracy_value', 'NONE');
#146 = EDGE_LOOP ( 'NONE', ( #230, #53, #219, #65 ) ) ;
#147 = ADVANCED_FACE ( 'NONE', ( #158 ), #29, .F. ) ;
#148 = VECTOR ( 'NONE', #229, 1000.000000000000000 ) ;
#149 = VECTOR ( 'NONE', #51, 1000.000000000000000 ) ;
#150 = PRODUCT ( 'Web Model 68434', 'Web Model 68434', '', ( #212 ) ) ;
#151 = EDGE_CURVE ( 'NONE', #40, #136, #138, .T. ) ;
#152 = APPROVAL_DATE_TIME ( #13, #58 ) ;
#153 = CARTESIAN_POINT ( 'NONE',  ( 37.50000000000000000, -37.49999999999999300, 3.000000000000000000 ) ) ;
#154 = EDGE_LOOP ( 'NONE', ( #20, #117, #67, #130 ) ) ;
#155 = DIRECTION ( 'NONE',  ( -1.000000000000000000, 0.0000000000000000000, -0.0000000000000000000 ) ) ;
#156 = DIRECTION ( 'NONE',  ( -1.850371707708594100E-016, 1.000000000000000000, 0.0000000000000000000 ) ) ;
#157 = CARTESIAN_POINT ( 'NONE',  ( -37.50000000000000000, -37.50000000000000700, 3.000000000000000000 ) ) ;
#158 = FACE_OUTER_BOUND ( 'NONE', #154, .T. ) ;
#159 = EDGE_LOOP ( 'NONE', ( #207, #10, #2, #14 ) ) ;
#160 = PERSON_AND_ORGANIZATION_ROLE ( 'design_owner' ) ;
#161 = PERSON_AND_ORGANIZATION ( #167, #77 ) ;
#162 = LINE ( 'NONE', #193, #55 ) ;
#163 = FACE_OUTER_BOUND ( 'NONE', #44, .T. ) ;
#164 = AXIS2_PLACEMENT_3D ( 'NONE', #24, #131, #223 ) ;
#165 = LOCAL_TIME ( 15, 4, 17.00000000000000000, #115 ) ;
#166 = ADVANCED_FACE ( 'NONE', ( #91 ), #7, .T. ) ;
#167 = PERSON ( 'UNSPECIFIED', 'UNSPECIFIED', 'UNSPECIFIED', ('UNSPECIFIED'), ('UNSPECIFIED'), ('UNSPECIFIED') ) ;
#168 = DIRECTION ( 'NONE',  ( -0.0000000000000000000, 1.000000000000000000, -0.0000000000000000000 ) ) ;
#169 = DIRECTION ( 'NONE',  ( -1.000000000000000000, 0.0000000000000000000, -0.0000000000000000000 ) ) ;
#170 = FACE_OUTER_BOUND ( 'NONE', #159, .T. ) ;
#171 = AXIS2_PLACEMENT_3D ( 'NONE', #134, #156, #188 ) ;
#172 = SECURITY_CLASSIFICATION ( '', '', #38 ) ;
#173 = DIRECTION ( 'NONE',  ( -1.000000000000000000, 0.0000000000000000000, 0.0000000000000000000 ) ) ;
#174 = DIRECTION ( 'NONE',  ( 1.000000000000000000, 1.850371707708594300E-016, -0.0000000000000000000 ) ) ;
#175 = VERTEX_POINT ( 'NONE', #78 ) ;
#176 =( NAMED_UNIT ( * ) SI_UNIT ( $, .STERADIAN. ) SOLID_ANGLE_UNIT ( ) );
#177 = PERSON_AND_ORGANIZATION_ROLE ( 'creator' ) ;
#178 = CC_DESIGN_PERSON_AND_ORGANIZATION_ASSIGNMENT ( #83, #107, ( #172 ) ) ;
#179 = PERSON_AND_ORGANIZATION_ROLE ( 'creator' ) ;
#180 = VECTOR ( 'NONE', #198, 1000.000000000000000 ) ;
#181 = CC_DESIGN_PERSON_AND_ORGANIZATION_ASSIGNMENT ( #26, #179, ( #120 ) ) ;
#182 = APPROVAL_DATE_TIME ( #94, #3 ) ;
#183 = APPROVAL_DATE_TIME ( #41, #126 ) ;
#184 = CC_DESIGN_DATE_AND_TIME_ASSIGNMENT ( #201, #68, ( #172 ) ) ;
#185 = LINE ( 'NONE', #93, #218 ) ;
#186 = MANIFOLD_SOLID_BREP ( 'Extrude1', #82 ) ;
#187 = CALENDAR_DATE ( 2017, 31, 1 ) ;
#188 = DIRECTION ( 'NONE',  ( -1.000000000000000000, -1.850371707708594100E-016, 0.0000000000000000000 ) ) ;
#189 = DIRECTION ( 'NONE',  ( -1.000000000000000000, 0.0000000000000000000, 0.0000000000000000000 ) ) ;
#190 = APPROVAL_PERSON_ORGANIZATION ( #234, #58, #50 ) ;
#191 = PLANE ( 'NONE',  #225 ) ;
#192 = CC_DESIGN_PERSON_AND_ORGANIZATION_ASSIGNMENT ( #214, #87, ( #120 ) ) ;
#193 = CARTESIAN_POINT ( 'NONE',  ( 37.50000000000000000, -37.49999999999999300, 3.000000000000000000 ) ) ;
#194 = ORIENTED_EDGE ( 'NONE', *, *, #211, .F. ) ;
#195 = FACE_OUTER_BOUND ( 'NONE', #27, .T. ) ;
#196 = CC_DESIGN_APPROVAL ( #3, ( #172 ) ) ;
#197 = LINE ( 'NONE', #72, #180 ) ;
#198 = DIRECTION ( 'NONE',  ( -0.0000000000000000000, 1.000000000000000000, -0.0000000000000000000 ) ) ;
#199 = ORIENTED_EDGE ( 'NONE', *, *, #98, .T. ) ;
#200 = EDGE_CURVE ( 'NONE', #216, #40, #106, .T. ) ;
#201 = DATE_AND_TIME ( #19, #165 ) ;
#202 = ADVANCED_FACE ( 'NONE', ( #195 ), #191, .F. ) ;
#203 = CARTESIAN_POINT ( 'NONE',  ( -37.50000000000000700, 37.49999999999999300, 3.000000000000000000 ) ) ;
#204 = ORIENTED_EDGE ( 'NONE', *, *, #200, .F. ) ;
#205 = LOCAL_TIME ( 15, 4, 17.00000000000000000, #144 ) ;
#206 = VECTOR ( 'NONE', #189, 1000.000000000000000 ) ;
#207 = ORIENTED_EDGE ( 'NONE', *, *, #42, .T. ) ;
#208 = DIRECTION ( 'NONE',  ( 0.0000000000000000000, 0.0000000000000000000, -1.000000000000000000 ) ) ;
#209 = DIRECTION ( 'NONE',  ( -1.000000000000000000, 0.0000000000000000000, 0.0000000000000000000 ) ) ;
#210 = CARTESIAN_POINT ( 'NONE',  ( -37.50000000000000700, 37.49999999999999300, 0.0000000000000000000 ) ) ;
#211 = EDGE_CURVE ( 'NONE', #114, #175, #9, .T. ) ;
#212 = MECHANICAL_CONTEXT ( 'NONE', #81, 'mechanical' ) ;
#213 = VECTOR ( 'NONE', #33, 1000.000000000000000 ) ;
#214 = PERSON_AND_ORGANIZATION ( #167, #77 ) ;
#215 = LINE ( 'NONE', #6, #206 ) ;
#216 = VERTEX_POINT ( 'NONE', #125 ) ;
#217 = ADVANCED_FACE ( 'NONE', ( #170 ), #123, .F. ) ;
#218 = VECTOR ( 'NONE', #168, 1000.000000000000000 ) ;
#219 = ORIENTED_EDGE ( 'NONE', *, *, #42, .F. ) ;
#220 = LINE ( 'NONE', #96, #45 ) ;
#221 = PRODUCT_RELATED_PRODUCT_CATEGORY ( 'detail', '', ( #150 ) ) ;
#222 = ORIENTED_EDGE ( 'NONE', *, *, #237, .T. ) ;
#223 = DIRECTION ( 'NONE',  ( -9.251858538542970300E-017, 1.000000000000000000, 0.0000000000000000000 ) ) ;
#224 = FACE_OUTER_BOUND ( 'NONE', #122, .T. ) ;
#225 = AXIS2_PLACEMENT_3D ( 'NONE', #135, #104, #47 ) ;
#226 = PLANE ( 'NONE',  #139 ) ;
#227 = CARTESIAN_POINT ( 'NONE',  ( 37.50000000000000000, -37.49999999999999300, 0.0000000000000000000 ) ) ;
#228 = EDGE_CURVE ( 'NONE', #111, #114, #140, .T. ) ;
#229 = DIRECTION ( 'NONE',  ( -0.0000000000000000000, -0.0000000000000000000, -1.000000000000000000 ) ) ;
#230 = ORIENTED_EDGE ( 'NONE', *, *, #232, .F. ) ;
#231 = DATE_TIME_ROLE ( 'creation_date' ) ;
#232 = EDGE_CURVE ( 'NONE', #175, #40, #22, .T. ) ;
#233 = CARTESIAN_POINT ( 'NONE',  ( -37.50000000000000700, 37.49999999999999300, 3.000000000000000000 ) ) ;
#234 = PERSON_AND_ORGANIZATION ( #167, #77 ) ;
#235 = APPROVAL_STATUS ( 'not_yet_approved' ) ;
#236 = VECTOR ( 'NONE', #8, 1000.000000000000000 ) ;
#237 = EDGE_CURVE ( 'NONE', #216, #75, #162, .T. ) ;
ENDSEC;
END-ISO-10303-21;
