ISO-10303-21;
HEADER;
FILE_DESCRIPTION (( 'STEP AP203' ),
    '1' );
FILE_NAME ('Web Model 68399.STEP',
    '2017-01-31T19:56:28',
    ( '' ),
    ( '' ),
    'SwSTEP 2.0',
    'SolidWorks 2016',
    '' );
FILE_SCHEMA (( 'CONFIG_CONTROL_DESIGN' ));
ENDSEC;

DATA;
#1 = LOCAL_TIME ( 14, 56, 28.00000000000000000, #69 ) ;
#2 = CIRCLE ( 'NONE', #18, 6.249999999999998200 ) ;
#3 = CC_DESIGN_SECURITY_CLASSIFICATION ( #50, ( #74 ) ) ;
#4 = ORIENTED_EDGE ( 'NONE', *, *, #151, .T. ) ;
#5 = CC_DESIGN_APPROVAL ( #132, ( #50 ) ) ;
#6 = CALENDAR_DATE ( 2017, 31, 1 ) ;
#7 = FACE_OUTER_BOUND ( 'NONE', #137, .T. ) ;
#8 = CARTESIAN_POINT ( 'NONE',  ( 0.0000000000000000000, 0.0000000000000000000, 3.000000000000000000 ) ) ;
#9 = CARTESIAN_POINT ( 'NONE',  ( 0.0000000000000000000, 0.0000000000000000000, 0.0000000000000000000 ) ) ;
#10 = CC_DESIGN_APPROVAL ( #155, ( #74 ) ) ;
#11 = AXIS2_PLACEMENT_3D ( 'NONE', #24, #76, #169 ) ;
#12 = EDGE_CURVE ( 'NONE', #162, #55, #72, .T. ) ;
#13 = APPROVAL_ROLE ( '' ) ;
#14 = APPROVAL_STATUS ( 'not_yet_approved' ) ;
#15 = ADVANCED_FACE ( 'NONE', ( #7 ), #37, .T. ) ;
#16 = UNCERTAINTY_MEASURE_WITH_UNIT (LENGTH_MEASURE( 1.000000000000000100E-005 ), #27, 'distance_accuracy_value', 'NONE');
#17 = APPROVAL_STATUS ( 'not_yet_approved' ) ;
#18 = AXIS2_PLACEMENT_3D ( 'NONE', #25, #80, #43 ) ;
#19 = PERSON_AND_ORGANIZATION ( #52, #32 ) ;
#20 = AXIS2_PLACEMENT_3D ( 'NONE', #159, #81, #106 ) ;
#21 = CARTESIAN_POINT ( 'NONE',  ( 6.249999999999998200, 7.654042494670955600E-016, 3.000000000000000000 ) ) ;
#22 = LOCAL_TIME ( 14, 56, 28.00000000000000000, #92 ) ;
#23 =( GEOMETRIC_REPRESENTATION_CONTEXT ( 3 ) GLOBAL_UNCERTAINTY_ASSIGNED_CONTEXT ( ( #16 ) ) GLOBAL_UNIT_ASSIGNED_CONTEXT ( ( #27, #41, #93 ) ) REPRESENTATION_CONTEXT ( 'NONE', 'WORKASPACE' ) );
#24 = CARTESIAN_POINT ( 'NONE',  ( 0.0000000000000000000, 0.0000000000000000000, 0.0000000000000000000 ) ) ;
#25 = CARTESIAN_POINT ( 'NONE',  ( 0.0000000000000000000, 0.0000000000000000000, 0.0000000000000000000 ) ) ;
#26 = PERSON_AND_ORGANIZATION_ROLE ( 'design_owner' ) ;
#27 =( LENGTH_UNIT ( ) NAMED_UNIT ( * ) SI_UNIT ( .MILLI., .METRE. ) );
#28 = PERSON_AND_ORGANIZATION_ROLE ( 'creator' ) ;
#29 = AXIS2_PLACEMENT_3D ( 'NONE', #9, #156, #102 ) ;
#30 = DATE_TIME_ROLE ( 'classification_date' ) ;
#31 = CC_DESIGN_PERSON_AND_ORGANIZATION_ASSIGNMENT ( #86, #134, ( #74 ) ) ;
#32 = ORGANIZATION ( 'UNSPECIFIED', 'UNSPECIFIED', '' ) ;
#33 = MANIFOLD_SOLID_BREP ( 'Extrude1', #111 ) ;
#34 = APPROVAL_DATE_TIME ( #54, #101 ) ;
#35 = ORIENTED_EDGE ( 'NONE', *, *, #144, .T. ) ;
#36 = AXIS2_PLACEMENT_3D ( 'NONE', #131, #84, #119 ) ;
#37 = PLANE ( 'NONE',  #112 ) ;
#38 = APPROVAL_PERSON_ORGANIZATION ( #171, #132, #46 ) ;
#39 = ORIENTED_EDGE ( 'NONE', *, *, #167, .T. ) ;
#40 = DIRECTION ( 'NONE',  ( -0.0000000000000000000, -0.0000000000000000000, -1.000000000000000000 ) ) ;
#41 =( NAMED_UNIT ( * ) PLANE_ANGLE_UNIT ( ) SI_UNIT ( $, .RADIAN. ) );
#42 = CIRCLE ( 'NONE', #118, 6.249999999999998200 ) ;
#43 = DIRECTION ( 'NONE',  ( 1.000000000000000000, 0.0000000000000000000, 0.0000000000000000000 ) ) ;
#44 = APPROVAL_ROLE ( '' ) ;
#45 = ADVANCED_FACE ( 'NONE', ( #140 ), #62, .F. ) ;
#46 = APPROVAL_ROLE ( '' ) ;
#47 = FACE_OUTER_BOUND ( 'NONE', #146, .T. ) ;
#48 = COORDINATED_UNIVERSAL_TIME_OFFSET ( 5, 0, .BEHIND. ) ;
#49 = PERSON_AND_ORGANIZATION ( #52, #32 ) ;
#50 = SECURITY_CLASSIFICATION ( '', '', #121 ) ;
#51 = PERSON_AND_ORGANIZATION ( #52, #32 ) ;
#52 = PERSON ( 'UNSPECIFIED', 'UNSPECIFIED', 'UNSPECIFIED', ('UNSPECIFIED'), ('UNSPECIFIED'), ('UNSPECIFIED') ) ;
#53 = CARTESIAN_POINT ( 'NONE',  ( 0.0000000000000000000, 0.0000000000000000000, 3.000000000000000000 ) ) ;
#54 = DATE_AND_TIME ( #154, #1 ) ;
#55 = VERTEX_POINT ( 'NONE', #79 ) ;
#56 = APPLICATION_PROTOCOL_DEFINITION ( 'international standard', 'config_control_design', 1994, #103 ) ;
#57 = LOCAL_TIME ( 14, 56, 28.00000000000000000, #138 ) ;
#58 = ADVANCED_BREP_SHAPE_REPRESENTATION ( 'Web Model 68399', ( #33, #125 ), #23 ) ;
#59 = ORIENTED_EDGE ( 'NONE', *, *, #167, .F. ) ;
#60 = CARTESIAN_POINT ( 'NONE',  ( 6.249999999999998200, 7.654042494670955600E-016, 3.000000000000000000 ) ) ;
#61 = CC_DESIGN_PERSON_AND_ORGANIZATION_ASSIGNMENT ( #19, #107, ( #50 ) ) ;
#62 = PLANE ( 'NONE',  #29 ) ;
#63 = SHAPE_DEFINITION_REPRESENTATION ( #113, #58 ) ;
#64 = DESIGN_CONTEXT ( 'detailed design', #175, 'design' ) ;
#65 = CARTESIAN_POINT ( 'NONE',  ( 0.0000000000000000000, 0.0000000000000000000, 0.0000000000000000000 ) ) ;
#66 = FACE_OUTER_BOUND ( 'NONE', #75, .T. ) ;
#67 = PRODUCT_RELATED_PRODUCT_CATEGORY ( 'detail', '', ( #164 ) ) ;
#68 = PERSON_AND_ORGANIZATION_ROLE ( 'design_supplier' ) ;
#69 = COORDINATED_UNIVERSAL_TIME_OFFSET ( 5, 0, .BEHIND. ) ;
#70 = VECTOR ( 'NONE', #83, 1000.000000000000000 ) ;
#71 = PRODUCT_DEFINITION ( 'UNKNOWN', '', #74, #64 ) ;
#72 = CIRCLE ( 'NONE', #11, 6.249999999999998200 ) ;
#73 = DATE_AND_TIME ( #124, #117 ) ;
#74 = PRODUCT_DEFINITION_FORMATION_WITH_SPECIFIED_SOURCE ( 'ANY', '', #164, .NOT_KNOWN. ) ;
#75 = EDGE_LOOP ( 'NONE', ( #85, #59, #4, #105 ) ) ;
#76 = DIRECTION ( 'NONE',  ( 0.0000000000000000000, 0.0000000000000000000, 1.000000000000000000 ) ) ;
#77 = DATE_AND_TIME ( #6, #22 ) ;
#78 = ORIENTED_EDGE ( 'NONE', *, *, #151, .F. ) ;
#79 = CARTESIAN_POINT ( 'NONE',  ( 6.249999999999998200, 7.654042494670955600E-016, 0.0000000000000000000 ) ) ;
#80 = DIRECTION ( 'NONE',  ( 0.0000000000000000000, 0.0000000000000000000, 1.000000000000000000 ) ) ;
#81 = DIRECTION ( 'NONE',  ( -0.0000000000000000000, -0.0000000000000000000, -1.000000000000000000 ) ) ;
#82 = CC_DESIGN_DATE_AND_TIME_ASSIGNMENT ( #77, #147, ( #71 ) ) ;
#83 = DIRECTION ( 'NONE',  ( -0.0000000000000000000, -0.0000000000000000000, -1.000000000000000000 ) ) ;
#84 = DIRECTION ( 'NONE',  ( 0.0000000000000000000, 0.0000000000000000000, 1.000000000000000000 ) ) ;
#85 = ORIENTED_EDGE ( 'NONE', *, *, #136, .F. ) ;
#86 = PERSON_AND_ORGANIZATION ( #52, #32 ) ;
#87 = APPROVAL_DATE_TIME ( #129, #155 ) ;
#88 = CC_DESIGN_PERSON_AND_ORGANIZATION_ASSIGNMENT ( #49, #68, ( #74 ) ) ;
#89 = DIRECTION ( 'NONE',  ( 1.000000000000000000, 0.0000000000000000000, 0.0000000000000000000 ) ) ;
#90 = DIRECTION ( 'NONE',  ( -0.0000000000000000000, -0.0000000000000000000, -1.000000000000000000 ) ) ;
#91 = DIRECTION ( 'NONE',  ( 0.0000000000000000000, 0.0000000000000000000, 1.000000000000000000 ) ) ;
#92 = COORDINATED_UNIVERSAL_TIME_OFFSET ( 5, 0, .BEHIND. ) ;
#93 =( NAMED_UNIT ( * ) SI_UNIT ( $, .STERADIAN. ) SOLID_ANGLE_UNIT ( ) );
#94 = APPLICATION_PROTOCOL_DEFINITION ( 'international standard', 'config_control_design', 1994, #175 ) ;
#95 = APPROVAL_STATUS ( 'not_yet_approved' ) ;
#96 = PERSON_AND_ORGANIZATION ( #52, #32 ) ;
#97 = ORIENTED_EDGE ( 'NONE', *, *, #136, .T. ) ;
#98 = ORIENTED_EDGE ( 'NONE', *, *, #104, .F. ) ;
#99 = CARTESIAN_POINT ( 'NONE',  ( -6.249999999999998200, 0.0000000000000000000, 3.000000000000000000 ) ) ;
#100 = DIRECTION ( 'NONE',  ( -1.000000000000000000, 0.0000000000000000000, 0.0000000000000000000 ) ) ;
#101 = APPROVAL ( #95, 'UNSPECIFIED' ) ;
#102 = DIRECTION ( 'NONE',  ( 1.000000000000000000, 0.0000000000000000000, -0.0000000000000000000 ) ) ;
#103 = APPLICATION_CONTEXT ( 'configuration controlled 3d designs of mechanical parts and assemblies' ) ;
#104 = EDGE_CURVE ( 'NONE', #149, #109, #42, .T. ) ;
#105 = ORIENTED_EDGE ( 'NONE', *, *, #12, .T. ) ;
#106 = DIRECTION ( 'NONE',  ( -1.000000000000000000, 0.0000000000000000000, 0.0000000000000000000 ) ) ;
#107 = PERSON_AND_ORGANIZATION_ROLE ( 'classification_officer' ) ;
#108 = CALENDAR_DATE ( 2017, 31, 1 ) ;
#109 = VERTEX_POINT ( 'NONE', #153 ) ;
#110 = APPROVAL_DATE_TIME ( #157, #132 ) ;
#111 = CLOSED_SHELL ( 'NONE', ( #173, #133, #15, #45 ) ) ;
#112 = AXIS2_PLACEMENT_3D ( 'NONE', #53, #143, #170 ) ;
#113 = PRODUCT_DEFINITION_SHAPE ( 'NONE', 'NONE',  #71 ) ;
#114 = APPROVAL_PERSON_ORGANIZATION ( #51, #101, #13 ) ;
#115 = VECTOR ( 'NONE', #40, 1000.000000000000000 ) ;
#116 = CYLINDRICAL_SURFACE ( 'NONE', #165, 6.249999999999998200 ) ;
#117 = LOCAL_TIME ( 14, 56, 28.00000000000000000, #48 ) ;
#118 = AXIS2_PLACEMENT_3D ( 'NONE', #152, #91, #89 ) ;
#119 = DIRECTION ( 'NONE',  ( 1.000000000000000000, 0.0000000000000000000, 0.0000000000000000000 ) ) ;
#120 = MECHANICAL_CONTEXT ( 'NONE', #103, 'mechanical' ) ;
#121 = SECURITY_CLASSIFICATION_LEVEL ( 'unclassified' ) ;
#122 = LOCAL_TIME ( 14, 56, 28.00000000000000000, #141 ) ;
#123 = ORIENTED_EDGE ( 'NONE', *, *, #12, .F. ) ;
#124 = CALENDAR_DATE ( 2017, 31, 1 ) ;
#125 = AXIS2_PLACEMENT_3D ( 'NONE', #65, #160, #174 ) ;
#126 = CC_DESIGN_DATE_AND_TIME_ASSIGNMENT ( #73, #30, ( #50 ) ) ;
#127 = LINE ( 'NONE', #60, #115 ) ;
#128 = CC_DESIGN_APPROVAL ( #101, ( #71 ) ) ;
#129 = DATE_AND_TIME ( #108, #122 ) ;
#130 = ORIENTED_EDGE ( 'NONE', *, *, #144, .F. ) ;
#131 = CARTESIAN_POINT ( 'NONE',  ( 0.0000000000000000000, 0.0000000000000000000, 3.000000000000000000 ) ) ;
#132 = APPROVAL ( #17, 'UNSPECIFIED' ) ;
#133 = ADVANCED_FACE ( 'NONE', ( #66 ), #116, .T. ) ;
#134 = PERSON_AND_ORGANIZATION_ROLE ( 'creator' ) ;
#135 = CALENDAR_DATE ( 2017, 31, 1 ) ;
#136 = EDGE_CURVE ( 'NONE', #149, #55, #127, .T. ) ;
#137 = EDGE_LOOP ( 'NONE', ( #39, #168 ) ) ;
#138 = COORDINATED_UNIVERSAL_TIME_OFFSET ( 5, 0, .BEHIND. ) ;
#139 = LINE ( 'NONE', #99, #70 ) ;
#140 = FACE_OUTER_BOUND ( 'NONE', #142, .T. ) ;
#141 = COORDINATED_UNIVERSAL_TIME_OFFSET ( 5, 0, .BEHIND. ) ;
#142 = EDGE_LOOP ( 'NONE', ( #123, #130 ) ) ;
#143 = DIRECTION ( 'NONE',  ( 0.0000000000000000000, 0.0000000000000000000, 1.000000000000000000 ) ) ;
#144 = EDGE_CURVE ( 'NONE', #55, #162, #2, .T. ) ;
#145 = CARTESIAN_POINT ( 'NONE',  ( -6.249999999999998200, 0.0000000000000000000, 0.0000000000000000000 ) ) ;
#146 = EDGE_LOOP ( 'NONE', ( #98, #97, #35, #78 ) ) ;
#147 = DATE_TIME_ROLE ( 'creation_date' ) ;
#148 = CC_DESIGN_PERSON_AND_ORGANIZATION_ASSIGNMENT ( #96, #28, ( #71 ) ) ;
#149 = VERTEX_POINT ( 'NONE', #21 ) ;
#150 = APPROVAL_PERSON_ORGANIZATION ( #166, #155, #44 ) ;
#151 = EDGE_CURVE ( 'NONE', #109, #162, #139, .T. ) ;
#152 = CARTESIAN_POINT ( 'NONE',  ( 0.0000000000000000000, 0.0000000000000000000, 3.000000000000000000 ) ) ;
#153 = CARTESIAN_POINT ( 'NONE',  ( -6.249999999999998200, 0.0000000000000000000, 3.000000000000000000 ) ) ;
#154 = CALENDAR_DATE ( 2017, 31, 1 ) ;
#155 = APPROVAL ( #14, 'UNSPECIFIED' ) ;
#156 = DIRECTION ( 'NONE',  ( 0.0000000000000000000, 0.0000000000000000000, 1.000000000000000000 ) ) ;
#157 = DATE_AND_TIME ( #135, #57 ) ;
#158 = CYLINDRICAL_SURFACE ( 'NONE', #20, 6.249999999999998200 ) ;
#159 = CARTESIAN_POINT ( 'NONE',  ( 0.0000000000000000000, 0.0000000000000000000, 3.000000000000000000 ) ) ;
#160 = DIRECTION ( 'NONE',  ( 0.0000000000000000000, 0.0000000000000000000, 1.000000000000000000 ) ) ;
#161 = PERSON_AND_ORGANIZATION ( #52, #32 ) ;
#162 = VERTEX_POINT ( 'NONE', #145 ) ;
#163 = CC_DESIGN_PERSON_AND_ORGANIZATION_ASSIGNMENT ( #161, #26, ( #164 ) ) ;
#164 = PRODUCT ( 'Web Model 68399', 'Web Model 68399', '', ( #120 ) ) ;
#165 = AXIS2_PLACEMENT_3D ( 'NONE', #8, #90, #100 ) ;
#166 = PERSON_AND_ORGANIZATION ( #52, #32 ) ;
#167 = EDGE_CURVE ( 'NONE', #109, #149, #172, .T. ) ;
#168 = ORIENTED_EDGE ( 'NONE', *, *, #104, .T. ) ;
#169 = DIRECTION ( 'NONE',  ( 1.000000000000000000, 0.0000000000000000000, 0.0000000000000000000 ) ) ;
#170 = DIRECTION ( 'NONE',  ( 1.000000000000000000, 0.0000000000000000000, -0.0000000000000000000 ) ) ;
#171 = PERSON_AND_ORGANIZATION ( #52, #32 ) ;
#172 = CIRCLE ( 'NONE', #36, 6.249999999999998200 ) ;
#173 = ADVANCED_FACE ( 'NONE', ( #47 ), #158, .T. ) ;
#174 = DIRECTION ( 'NONE',  ( 1.000000000000000000, 0.0000000000000000000, 0.0000000000000000000 ) ) ;
#175 = APPLICATION_CONTEXT ( 'configuration controlled 3d designs of mechanical parts and assemblies' ) ;
ENDSEC;
END-ISO-10303-21;
