ISO-10303-21;
HEADER;
FILE_DESCRIPTION (( 'STEP AP203' ),
    '1' );
FILE_NAME ('Web Model 19837_19847.step',
    '2022-04-06T15:01:14',
    ( 'WC' ),
    ( 'Windows Central' ),
    'SwSTEP 2.0',
    'SolidWorks 2021',
    '' );
FILE_SCHEMA (( 'CONFIG_CONTROL_DESIGN' ));
ENDSEC;

DATA;
#1 = DIRECTION ( 'NONE',  ( 0.000000000000000000, 0.000000000000000000, 1.000000000000000000 ) ) ;
#2 = APPLICATION_PROTOCOL_DEFINITION ( 'international standard', 'config_control_design', 1994, #173 ) ;
#3 = APPROVAL_PERSON_ORGANIZATION ( #76, #110, #144 ) ;
#4 = CARTESIAN_POINT ( 'NONE',  ( 0.000000000000000000, 0.000000000000000000, 1.000000000000000000 ) ) ;
#5 = VECTOR ( 'NONE', #100, 1000.000000000000000 ) ;
#6 = APPROVAL_STATUS ( 'not_yet_approved' ) ;
#7 = APPROVAL_DATE_TIME ( #44, #110 ) ;
#8 = APPLICATION_CONTEXT ( 'configuration controlled 3d designs of mechanical parts and assemblies' ) ;
#9 = DATE_TIME_ROLE ( 'creation_date' ) ;
#10 = CIRCLE ( 'NONE', #125, 12.50000000000000000 ) ;
#11 = PRODUCT_DEFINITION ( 'UNKNOWN', '', #148, #154 ) ;
#12 = DIRECTION ( 'NONE',  ( -0.000000000000000000, -0.000000000000000000, -1.000000000000000000 ) ) ;
#13 = ORIENTED_EDGE ( 'NONE', *, *, #24, .T. ) ;
#14 = ORIENTED_EDGE ( 'NONE', *, *, #104, .F. ) ;
#15 = CC_DESIGN_DATE_AND_TIME_ASSIGNMENT ( #105, #161, ( #106 ) ) ;
#16 = CARTESIAN_POINT ( 'NONE',  ( 0.000000000000000000, 0.000000000000000000, 1.000000000000000000 ) ) ;
#17 = AXIS2_PLACEMENT_3D ( 'NONE', #38, #111, #53 ) ;
#18 = DIRECTION ( 'NONE',  ( -0.000000000000000000, -0.000000000000000000, -1.000000000000000000 ) ) ;
#19 = APPROVAL_PERSON_ORGANIZATION ( #72, #171, #58 ) ;
#20 = CARTESIAN_POINT ( 'NONE',  ( 12.50000000000000000, 1.530808498934191521E-15, 0.000000000000000000 ) ) ;
#21 = PERSON_AND_ORGANIZATION_ROLE ( 'design_owner' ) ;
#22 = COORDINATED_UNIVERSAL_TIME_OFFSET ( 5, 0, .BEHIND. ) ;
#23 = PERSON_AND_ORGANIZATION ( #168, #134 ) ;
#24 = EDGE_CURVE ( 'NONE', #63, #26, #54, .T. ) ;
#25 = CC_DESIGN_APPROVAL ( #136, ( #11 ) ) ;
#26 = VERTEX_POINT ( 'NONE', #93 ) ;
#27 = LOCAL_TIME ( 11, 1, 14.00000000000000000, #162 ) ;
#28 = ADVANCED_FACE ( 'NONE', ( #29 ), #80, .T. ) ;
#29 = FACE_OUTER_BOUND ( 'NONE', #95, .T. ) ;
#30 = CYLINDRICAL_SURFACE ( 'NONE', #33, 12.50000000000000000 ) ;
#31 = CARTESIAN_POINT ( 'NONE',  ( -12.50000000000000000, 0.000000000000000000, 0.000000000000000000 ) ) ;
#32 = DIRECTION ( 'NONE',  ( 0.000000000000000000, 0.000000000000000000, 1.000000000000000000 ) ) ;
#33 = AXIS2_PLACEMENT_3D ( 'NONE', #4, #101, #115 ) ;
#34 = AXIS2_PLACEMENT_3D ( 'NONE', #16, #70, #42 ) ;
#35 = DIRECTION ( 'NONE',  ( 0.000000000000000000, 0.000000000000000000, 1.000000000000000000 ) ) ;
#36 = APPROVAL_ROLE ( '' ) ;
#37 = CC_DESIGN_PERSON_AND_ORGANIZATION_ASSIGNMENT ( #169, #60, ( #148 ) ) ;
#38 = CARTESIAN_POINT ( 'NONE',  ( 0.000000000000000000, 0.000000000000000000, 1.000000000000000000 ) ) ;
#39 = ADVANCED_FACE ( 'NONE', ( #62 ), #96, .F. ) ;
#40 = DIRECTION ( 'NONE',  ( 0.000000000000000000, 0.000000000000000000, 1.000000000000000000 ) ) ;
#41 = COORDINATED_UNIVERSAL_TIME_OFFSET ( 5, 0, .BEHIND. ) ;
#42 = DIRECTION ( 'NONE',  ( 1.000000000000000000, 0.000000000000000000, -0.000000000000000000 ) ) ;
#43 = APPROVAL_STATUS ( 'not_yet_approved' ) ;
#44 = DATE_AND_TIME ( #88, #27 ) ;
#45 = LOCAL_TIME ( 11, 1, 14.00000000000000000, #74 ) ;
#46 = PERSON_AND_ORGANIZATION ( #168, #134 ) ;
#47 = PERSON_AND_ORGANIZATION ( #168, #134 ) ;
#48 = SECURITY_CLASSIFICATION_LEVEL ( 'unclassified' ) ;
#49 = ORIENTED_EDGE ( 'NONE', *, *, #118, .T. ) ;
#50 = AXIS2_PLACEMENT_3D ( 'NONE', #147, #12, #150 ) ;
#51 = ORIENTED_EDGE ( 'NONE', *, *, #149, .F. ) ;
#52 = CC_DESIGN_APPROVAL ( #171, ( #106 ) ) ;
#53 = DIRECTION ( 'NONE',  ( 1.000000000000000000, 0.000000000000000000, 0.000000000000000000 ) ) ;
#54 = CIRCLE ( 'NONE', #17, 12.50000000000000000 ) ;
#55 = CARTESIAN_POINT ( 'NONE',  ( 0.000000000000000000, 0.000000000000000000, 0.000000000000000000 ) ) ;
#56 = MECHANICAL_CONTEXT ( 'NONE', #173, 'mechanical' ) ;
#57 =( NAMED_UNIT ( * ) PLANE_ANGLE_UNIT ( ) SI_UNIT ( $, .RADIAN. ) );
#58 = APPROVAL_ROLE ( '' ) ;
#59 = APPROVAL_DATE_TIME ( #73, #171 ) ;
#60 = PERSON_AND_ORGANIZATION_ROLE ( 'creator' ) ;
#61 = APPROVAL_STATUS ( 'not_yet_approved' ) ;
#62 = FACE_OUTER_BOUND ( 'NONE', #165, .T. ) ;
#63 = VERTEX_POINT ( 'NONE', #141 ) ;
#64 = CARTESIAN_POINT ( 'NONE',  ( 0.000000000000000000, 0.000000000000000000, 0.000000000000000000 ) ) ;
#65 = CARTESIAN_POINT ( 'NONE',  ( -12.50000000000000000, 0.000000000000000000, 1.000000000000000000 ) ) ;
#66 = DIRECTION ( 'NONE',  ( 1.000000000000000000, 0.000000000000000000, 0.000000000000000000 ) ) ;
#67 = CIRCLE ( 'NONE', #77, 12.50000000000000000 ) ;
#68 = DIRECTION ( 'NONE',  ( 0.000000000000000000, 0.000000000000000000, 1.000000000000000000 ) ) ;
#69 = ADVANCED_FACE ( 'NONE', ( #166 ), #139, .T. ) ;
#70 = DIRECTION ( 'NONE',  ( 0.000000000000000000, 0.000000000000000000, 1.000000000000000000 ) ) ;
#71 = UNCERTAINTY_MEASURE_WITH_UNIT (LENGTH_MEASURE( 1.000000000000000082E-05 ), #114, 'distance_accuracy_value', 'NONE');
#72 = PERSON_AND_ORGANIZATION ( #168, #134 ) ;
#73 = DATE_AND_TIME ( #142, #160 ) ;
#74 = COORDINATED_UNIVERSAL_TIME_OFFSET ( 5, 0, .BEHIND. ) ;
#75 = CALENDAR_DATE ( 2022, 6, 4 ) ;
#76 = PERSON_AND_ORGANIZATION ( #168, #134 ) ;
#77 = AXIS2_PLACEMENT_3D ( 'NONE', #55, #1, #138 ) ;
#78 = EDGE_CURVE ( 'NONE', #26, #63, #135, .T. ) ;
#79 = CC_DESIGN_APPROVAL ( #110, ( #148 ) ) ;
#80 = CYLINDRICAL_SURFACE ( 'NONE', #50, 12.50000000000000000 ) ;
#81 = AXIS2_PLACEMENT_3D ( 'NONE', #64, #32, #85 ) ;
#82 = CARTESIAN_POINT ( 'NONE',  ( 0.000000000000000000, 0.000000000000000000, 1.000000000000000000 ) ) ;
#83 = CC_DESIGN_PERSON_AND_ORGANIZATION_ASSIGNMENT ( #124, #21, ( #87 ) ) ;
#84 = AXIS2_PLACEMENT_3D ( 'NONE', #157, #35, #86 ) ;
#85 = DIRECTION ( 'NONE',  ( 1.000000000000000000, 0.000000000000000000, -0.000000000000000000 ) ) ;
#86 = DIRECTION ( 'NONE',  ( 1.000000000000000000, 0.000000000000000000, 0.000000000000000000 ) ) ;
#87 = PRODUCT ( 'Web Model 19837_19847', 'Web Model 19837_19847', '', ( #56 ) ) ;
#88 = CALENDAR_DATE ( 2022, 6, 4 ) ;
#89 = APPROVAL_DATE_TIME ( #90, #136 ) ;
#90 = DATE_AND_TIME ( #132, #103 ) ;
#91 = CC_DESIGN_PERSON_AND_ORGANIZATION_ASSIGNMENT ( #46, #170, ( #148 ) ) ;
#92 = ORIENTED_EDGE ( 'NONE', *, *, #104, .T. ) ;
#93 = CARTESIAN_POINT ( 'NONE',  ( 12.50000000000000000, 1.530808498934191521E-15, 1.000000000000000000 ) ) ;
#94 = LOCAL_TIME ( 11, 1, 14.00000000000000000, #22 ) ;
#95 = EDGE_LOOP ( 'NONE', ( #51, #109, #123, #92 ) ) ;
#96 = PLANE ( 'NONE',  #81 ) ;
#97 = ORIENTED_EDGE ( 'NONE', *, *, #149, .T. ) ;
#98 = LINE ( 'NONE', #127, #122 ) ;
#99 = CC_DESIGN_PERSON_AND_ORGANIZATION_ASSIGNMENT ( #47, #143, ( #11 ) ) ;
#100 = DIRECTION ( 'NONE',  ( -0.000000000000000000, -0.000000000000000000, -1.000000000000000000 ) ) ;
#101 = DIRECTION ( 'NONE',  ( -0.000000000000000000, -0.000000000000000000, -1.000000000000000000 ) ) ;
#102 = PERSON_AND_ORGANIZATION_ROLE ( 'classification_officer' ) ;
#103 = LOCAL_TIME ( 11, 1, 14.00000000000000000, #41 ) ;
#104 = EDGE_CURVE ( 'NONE', #108, #120, #67, .T. ) ;
#105 = DATE_AND_TIME ( #75, #94 ) ;
#106 = SECURITY_CLASSIFICATION ( '', '', #48 ) ;
#107 = ORIENTED_EDGE ( 'NONE', *, *, #118, .F. ) ;
#108 = VERTEX_POINT ( 'NONE', #31 ) ;
#109 = ORIENTED_EDGE ( 'NONE', *, *, #24, .F. ) ;
#110 = APPROVAL ( #61, 'UNSPECIFIED' ) ;
#111 = DIRECTION ( 'NONE',  ( 0.000000000000000000, 0.000000000000000000, 1.000000000000000000 ) ) ;
#112 = CARTESIAN_POINT ( 'NONE',  ( 0.000000000000000000, 0.000000000000000000, 0.000000000000000000 ) ) ;
#113 = ADVANCED_BREP_SHAPE_REPRESENTATION ( 'Web Model 19837_19847', ( #159, #84 ), #145 ) ;
#114 =( LENGTH_UNIT ( ) NAMED_UNIT ( * ) SI_UNIT ( .MILLI., .METRE. ) );
#115 = DIRECTION ( 'NONE',  ( -1.000000000000000000, 0.000000000000000000, 0.000000000000000000 ) ) ;
#116 = COORDINATED_UNIVERSAL_TIME_OFFSET ( 5, 0, .BEHIND. ) ;
#117 = CC_DESIGN_SECURITY_CLASSIFICATION ( #106, ( #148 ) ) ;
#118 = EDGE_CURVE ( 'NONE', #120, #108, #10, .T. ) ;
#119 = EDGE_LOOP ( 'NONE', ( #146, #97, #49, #174 ) ) ;
#120 = VERTEX_POINT ( 'NONE', #20 ) ;
#121 = CC_DESIGN_DATE_AND_TIME_ASSIGNMENT ( #133, #9, ( #11 ) ) ;
#122 = VECTOR ( 'NONE', #18, 1000.000000000000000 ) ;
#123 = ORIENTED_EDGE ( 'NONE', *, *, #163, .T. ) ;
#124 = PERSON_AND_ORGANIZATION ( #168, #134 ) ;
#125 = AXIS2_PLACEMENT_3D ( 'NONE', #112, #40, #153 ) ;
#126 = CLOSED_SHELL ( 'NONE', ( #131, #28, #69, #39 ) ) ;
#127 = CARTESIAN_POINT ( 'NONE',  ( 12.50000000000000000, 1.530808498934191521E-15, 1.000000000000000000 ) ) ;
#128 = SHAPE_DEFINITION_REPRESENTATION ( #156, #113 ) ;
#129 = FACE_OUTER_BOUND ( 'NONE', #119, .T. ) ;
#130 = CC_DESIGN_PERSON_AND_ORGANIZATION_ASSIGNMENT ( #23, #102, ( #106 ) ) ;
#131 = ADVANCED_FACE ( 'NONE', ( #129 ), #30, .T. ) ;
#132 = CALENDAR_DATE ( 2022, 6, 4 ) ;
#133 = DATE_AND_TIME ( #172, #45 ) ;
#134 = ORGANIZATION ( 'UNSPECIFIED', 'UNSPECIFIED', '' ) ;
#135 = CIRCLE ( 'NONE', #155, 12.50000000000000000 ) ;
#136 = APPROVAL ( #43, 'UNSPECIFIED' ) ;
#137 = LINE ( 'NONE', #65, #5 ) ;
#138 = DIRECTION ( 'NONE',  ( 1.000000000000000000, 0.000000000000000000, 0.000000000000000000 ) ) ;
#139 = PLANE ( 'NONE',  #34 ) ;
#140 = PRODUCT_RELATED_PRODUCT_CATEGORY ( 'detail', '', ( #87 ) ) ;
#141 = CARTESIAN_POINT ( 'NONE',  ( -12.50000000000000000, 0.000000000000000000, 1.000000000000000000 ) ) ;
#142 = CALENDAR_DATE ( 2022, 6, 4 ) ;
#143 = PERSON_AND_ORGANIZATION_ROLE ( 'creator' ) ;
#144 = APPROVAL_ROLE ( '' ) ;
#145 =( GEOMETRIC_REPRESENTATION_CONTEXT ( 3 ) GLOBAL_UNCERTAINTY_ASSIGNED_CONTEXT ( ( #71 ) ) GLOBAL_UNIT_ASSIGNED_CONTEXT ( ( #114, #57, #152 ) ) REPRESENTATION_CONTEXT ( 'NONE', 'WORKASPACE' ) );
#146 = ORIENTED_EDGE ( 'NONE', *, *, #78, .F. ) ;
#147 = CARTESIAN_POINT ( 'NONE',  ( 0.000000000000000000, 0.000000000000000000, 1.000000000000000000 ) ) ;
#148 = PRODUCT_DEFINITION_FORMATION_WITH_SPECIFIED_SOURCE ( 'ANY', '', #87, .NOT_KNOWN. ) ;
#149 = EDGE_CURVE ( 'NONE', #26, #120, #98, .T. ) ;
#150 = DIRECTION ( 'NONE',  ( -1.000000000000000000, 0.000000000000000000, 0.000000000000000000 ) ) ;
#151 = ORIENTED_EDGE ( 'NONE', *, *, #78, .T. ) ;
#152 =( NAMED_UNIT ( * ) SI_UNIT ( $, .STERADIAN. ) SOLID_ANGLE_UNIT ( ) );
#153 = DIRECTION ( 'NONE',  ( 1.000000000000000000, 0.000000000000000000, 0.000000000000000000 ) ) ;
#154 = DESIGN_CONTEXT ( 'detailed design', #8, 'design' ) ;
#155 = AXIS2_PLACEMENT_3D ( 'NONE', #82, #68, #66 ) ;
#156 = PRODUCT_DEFINITION_SHAPE ( 'NONE', 'NONE',  #11 ) ;
#157 = CARTESIAN_POINT ( 'NONE',  ( 0.000000000000000000, 0.000000000000000000, 0.000000000000000000 ) ) ;
#158 = PERSON_AND_ORGANIZATION ( #168, #134 ) ;
#159 = MANIFOLD_SOLID_BREP ( 'Boss-Extrude1', #126 ) ;
#160 = LOCAL_TIME ( 11, 1, 14.00000000000000000, #116 ) ;
#161 = DATE_TIME_ROLE ( 'classification_date' ) ;
#162 = COORDINATED_UNIVERSAL_TIME_OFFSET ( 5, 0, .BEHIND. ) ;
#163 = EDGE_CURVE ( 'NONE', #63, #108, #137, .T. ) ;
#164 = EDGE_LOOP ( 'NONE', ( #13, #151 ) ) ;
#165 = EDGE_LOOP ( 'NONE', ( #14, #107 ) ) ;
#166 = FACE_OUTER_BOUND ( 'NONE', #164, .T. ) ;
#167 = APPLICATION_PROTOCOL_DEFINITION ( 'international standard', 'config_control_design', 1994, #8 ) ;
#168 = PERSON ( 'UNSPECIFIED', 'UNSPECIFIED', 'UNSPECIFIED', ('UNSPECIFIED'), ('UNSPECIFIED'), ('UNSPECIFIED') ) ;
#169 = PERSON_AND_ORGANIZATION ( #168, #134 ) ;
#170 = PERSON_AND_ORGANIZATION_ROLE ( 'design_supplier' ) ;
#171 = APPROVAL ( #6, 'UNSPECIFIED' ) ;
#172 = CALENDAR_DATE ( 2022, 6, 4 ) ;
#173 = APPLICATION_CONTEXT ( 'configuration controlled 3d designs of mechanical parts and assemblies' ) ;
#174 = ORIENTED_EDGE ( 'NONE', *, *, #163, .F. ) ;
#175 = APPROVAL_PERSON_ORGANIZATION ( #158, #136, #36 ) ;
ENDSEC;
END-ISO-10303-21;
