ISO-10303-21;
HEADER;
FILE_DESCRIPTION (( 'STEP AP203' ),
    '1' );
FILE_NAME ('Web Model 64397MX_15751.step',
    '2020-10-19T15:35:18',
    ( '' ),
    ( '' ),
    'SwSTEP 2.0',
    'SolidWorks 2018',
    '' );
FILE_SCHEMA (( 'CONFIG_CONTROL_DESIGN' ));
ENDSEC;

DATA;
#1 = CC_DESIGN_PERSON_AND_ORGANIZATION_ASSIGNMENT ( #91, #7, ( #228 ) ) ;
#2 = ORIENTED_EDGE ( 'NONE', *, *, #53, .T. ) ;
#3 = CARTESIAN_POINT ( 'NONE',  ( -6.350000000000000533, -6.350000000000000533, 3.000000000000000000 ) ) ;
#4 = LINE ( 'NONE', #120, #226 ) ;
#5 = CARTESIAN_POINT ( 'NONE',  ( 6.349999999999998757, -6.349999999999998757, -3.000000000000000000 ) ) ;
#6 = AXIS2_PLACEMENT_3D ( 'NONE', #109, #190, #154 ) ;
#7 = PERSON_AND_ORGANIZATION_ROLE ( 'creator' ) ;
#8 = UNCERTAINTY_MEASURE_WITH_UNIT (LENGTH_MEASURE( 1.000000000000000082E-05 ), #174, 'distance_accuracy_value', 'NONE');
#9 = CALENDAR_DATE ( 2020, 19, 10 ) ;
#10 = DIRECTION ( 'NONE',  ( -0.0000000000000000000, -0.0000000000000000000, -1.000000000000000000 ) ) ;
#11 = ORIENTED_EDGE ( 'NONE', *, *, #76, .T. ) ;
#12 = LOCAL_TIME ( 11, 35, 18.00000000000000000, #197 ) ;
#13 = CARTESIAN_POINT ( 'NONE',  ( -6.350000000000000533, 6.349999999999998757, -3.000000000000000000 ) ) ;
#14 = DIRECTION ( 'NONE',  ( -0.0000000000000000000, -1.000000000000000000, -0.0000000000000000000 ) ) ;
#15 = ORIENTED_EDGE ( 'NONE', *, *, #179, .T. ) ;
#16 = ADVANCED_FACE ( 'NONE', ( #163 ), #213, .F. ) ;
#17 = CC_DESIGN_PERSON_AND_ORGANIZATION_ASSIGNMENT ( #144, #132, ( #27 ) ) ;
#18 = DIRECTION ( 'NONE',  ( 1.000000000000000000, 1.365923996832131609E-16, -0.0000000000000000000 ) ) ;
#19 = APPROVAL_PERSON_ORGANIZATION ( #46, #215, #135 ) ;
#20 = LINE ( 'NONE', #69, #130 ) ;
#21 = DIRECTION ( 'NONE',  ( -0.0000000000000000000, -0.0000000000000000000, -1.000000000000000000 ) ) ;
#22 = ORIENTED_EDGE ( 'NONE', *, *, #141, .F. ) ;
#23 = LINE ( 'NONE', #64, #188 ) ;
#24 = PERSON_AND_ORGANIZATION ( #191, #157 ) ;
#25 = APPLICATION_PROTOCOL_DEFINITION ( 'international standard', 'config_control_design', 1994, #203 ) ;
#26 = VECTOR ( 'NONE', #14, 1000.000000000000000 ) ;
#27 = PRODUCT_DEFINITION ( 'UNKNOWN', '', #228, #232 ) ;
#28 = CARTESIAN_POINT ( 'NONE',  ( 6.349999999999998757, 6.350000000000000533, 3.000000000000000000 ) ) ;
#29 = ORIENTED_EDGE ( 'NONE', *, *, #143, .F. ) ;
#30 = FACE_OUTER_BOUND ( 'NONE', #167, .T. ) ;
#31 = CARTESIAN_POINT ( 'NONE',  ( 6.349999999999998757, -6.349999999999998757, 3.000000000000000000 ) ) ;
#32 = ORIENTED_EDGE ( 'NONE', *, *, #83, .T. ) ;
#33 = LINE ( 'NONE', #31, #194 ) ;
#34 = LINE ( 'NONE', #145, #95 ) ;
#35 = DIRECTION ( 'NONE',  ( -0.0000000000000000000, -0.0000000000000000000, -1.000000000000000000 ) ) ;
#36 = DATE_AND_TIME ( #108, #164 ) ;
#37 = PLANE ( 'NONE',  #138 ) ;
#38 = SECURITY_CLASSIFICATION ( '', '', #193 ) ;
#39 = ORIENTED_EDGE ( 'NONE', *, *, #122, .T. ) ;
#40 = PLANE ( 'NONE',  #160 ) ;
#41 = APPLICATION_PROTOCOL_DEFINITION ( 'international standard', 'config_control_design', 1994, #44 ) ;
#42 = APPROVAL_STATUS ( 'not_yet_approved' ) ;
#43 = AXIS2_PLACEMENT_3D ( 'NONE', #148, #126, #220 ) ;
#44 = APPLICATION_CONTEXT ( 'configuration controlled 3d designs of mechanical parts and assemblies' ) ;
#45 = ORIENTED_EDGE ( 'NONE', *, *, #170, .F. ) ;
#46 = PERSON_AND_ORGANIZATION ( #191, #157 ) ;
#47 = CARTESIAN_POINT ( 'NONE',  ( -6.350000000000000533, -6.350000000000000533, -3.000000000000000000 ) ) ;
#48 = ORIENTED_EDGE ( 'NONE', *, *, #182, .F. ) ;
#49 = PLANE ( 'NONE',  #78 ) ;
#50 = APPROVAL_DATE_TIME ( #121, #110 ) ;
#51 = VECTOR ( 'NONE', #18, 1000.000000000000000 ) ;
#52 = CARTESIAN_POINT ( 'NONE',  ( -6.350000000000000533, -6.350000000000000533, 3.000000000000000000 ) ) ;
#53 = EDGE_CURVE ( 'NONE', #133, #186, #23, .T. ) ;
#54 = CC_DESIGN_APPROVAL ( #106, ( #228 ) ) ;
#55 = CARTESIAN_POINT ( 'NONE',  ( 6.349999999999998757, -6.349999999999998757, -3.000000000000000000 ) ) ;
#56 = LOCAL_TIME ( 11, 35, 18.00000000000000000, #225 ) ;
#57 = VECTOR ( 'NONE', #35, 1000.000000000000000 ) ;
#58 = ORIENTED_EDGE ( 'NONE', *, *, #53, .F. ) ;
#59 = DATE_AND_TIME ( #9, #56 ) ;
#60 =( NAMED_UNIT ( * ) SI_UNIT ( $, .STERADIAN. ) SOLID_ANGLE_UNIT ( ) );
#61 = CALENDAR_DATE ( 2020, 19, 10 ) ;
#62 = CC_DESIGN_DATE_AND_TIME_ASSIGNMENT ( #111, #74, ( #38 ) ) ;
#63 = COORDINATED_UNIVERSAL_TIME_OFFSET ( 5, 0, .BEHIND. ) ;
#64 = CARTESIAN_POINT ( 'NONE',  ( 6.349999999999998757, -6.349999999999998757, 3.000000000000000000 ) ) ;
#65 =( GEOMETRIC_REPRESENTATION_CONTEXT ( 3 ) GLOBAL_UNCERTAINTY_ASSIGNED_CONTEXT ( ( #8 ) ) GLOBAL_UNIT_ASSIGNED_CONTEXT ( ( #174, #131, #60 ) ) REPRESENTATION_CONTEXT ( 'NONE', 'WORKASPACE' ) );
#66 = DIRECTION ( 'NONE',  ( -1.365923996832131609E-16, 1.000000000000000000, 0.0000000000000000000 ) ) ;
#67 = VERTEX_POINT ( 'NONE', #47 ) ;
#68 = COORDINATED_UNIVERSAL_TIME_OFFSET ( 5, 0, .BEHIND. ) ;
#69 = CARTESIAN_POINT ( 'NONE',  ( 6.349999999999998757, 6.350000000000000533, -3.000000000000000000 ) ) ;
#70 = VERTEX_POINT ( 'NONE', #13 ) ;
#71 = APPROVAL_DATE_TIME ( #206, #215 ) ;
#72 = DIRECTION ( 'NONE',  ( -1.000000000000000000, -1.365923996832131609E-16, 0.0000000000000000000 ) ) ;
#73 = DIRECTION ( 'NONE',  ( -0.0000000000000000000, -0.0000000000000000000, -1.000000000000000000 ) ) ;
#74 = DATE_TIME_ROLE ( 'classification_date' ) ;
#75 = CLOSED_SHELL ( 'NONE', ( #146, #86, #16, #149, #151, #168 ) ) ;
#76 = EDGE_CURVE ( 'NONE', #186, #235, #33, .T. ) ;
#77 = FACE_OUTER_BOUND ( 'NONE', #236, .T. ) ;
#78 = AXIS2_PLACEMENT_3D ( 'NONE', #101, #66, #142 ) ;
#79 = ORIENTED_EDGE ( 'NONE', *, *, #182, .T. ) ;
#80 = PRODUCT_DEFINITION_SHAPE ( 'NONE', 'NONE',  #27 ) ;
#81 = CARTESIAN_POINT ( 'NONE',  ( 6.349999999999998757, -6.349999999999998757, 3.000000000000000000 ) ) ;
#82 = CALENDAR_DATE ( 2020, 19, 10 ) ;
#83 = EDGE_CURVE ( 'NONE', #136, #114, #233, .T. ) ;
#84 = ORIENTED_EDGE ( 'NONE', *, *, #83, .F. ) ;
#85 = CARTESIAN_POINT ( 'NONE',  ( 6.349999999999998757, 6.350000000000000533, -3.000000000000000000 ) ) ;
#86 = ADVANCED_FACE ( 'NONE', ( #162 ), #49, .F. ) ;
#87 = ORIENTED_EDGE ( 'NONE', *, *, #216, .T. ) ;
#88 = PERSON_AND_ORGANIZATION ( #191, #157 ) ;
#89 = PLANE ( 'NONE',  #43 ) ;
#90 = DIRECTION ( 'NONE',  ( 0.0000000000000000000, 1.000000000000000000, 0.0000000000000000000 ) ) ;
#91 = PERSON_AND_ORGANIZATION ( #191, #157 ) ;
#92 = APPROVAL_ROLE ( '' ) ;
#93 = AXIS2_PLACEMENT_3D ( 'NONE', #127, #104, #172 ) ;
#94 = ORIENTED_EDGE ( 'NONE', *, *, #116, .T. ) ;
#95 = VECTOR ( 'NONE', #169, 1000.000000000000000 ) ;
#96 = ORIENTED_EDGE ( 'NONE', *, *, #143, .T. ) ;
#97 = LINE ( 'NONE', #166, #57 ) ;
#98 = CC_DESIGN_PERSON_AND_ORGANIZATION_ASSIGNMENT ( #196, #189, ( #177 ) ) ;
#99 = PERSON_AND_ORGANIZATION ( #191, #157 ) ;
#100 = VECTOR ( 'NONE', #150, 1000.000000000000000 ) ;
#101 = CARTESIAN_POINT ( 'NONE',  ( 6.349999999999998757, -6.349999999999998757, 3.000000000000000000 ) ) ;
#102 = VERTEX_POINT ( 'NONE', #85 ) ;
#103 = DIRECTION ( 'NONE',  ( 1.365923996832131609E-16, -1.000000000000000000, 0.0000000000000000000 ) ) ;
#104 = DIRECTION ( 'NONE',  ( 0.0000000000000000000, -0.0000000000000000000, 1.000000000000000000 ) ) ;
#105 = VECTOR ( 'NONE', #73, 1000.000000000000000 ) ;
#106 = APPROVAL ( #42, 'UNSPECIFIED' ) ;
#107 = CARTESIAN_POINT ( 'NONE',  ( 6.349999999999998757, -6.349999999999998757, 3.000000000000000000 ) ) ;
#108 = CALENDAR_DATE ( 2020, 19, 10 ) ;
#109 = CARTESIAN_POINT ( 'NONE',  ( 0.0000000000000000000, 0.0000000000000000000, 0.0000000000000000000 ) ) ;
#110 = APPROVAL ( #224, 'UNSPECIFIED' ) ;
#111 = DATE_AND_TIME ( #117, #208 ) ;
#112 = CC_DESIGN_APPROVAL ( #215, ( #38 ) ) ;
#113 = EDGE_CURVE ( 'NONE', #133, #67, #97, .T. ) ;
#114 = VERTEX_POINT ( 'NONE', #218 ) ;
#115 = APPROVAL_DATE_TIME ( #59, #106 ) ;
#116 = EDGE_CURVE ( 'NONE', #186, #136, #34, .T. ) ;
#117 = CALENDAR_DATE ( 2020, 19, 10 ) ;
#118 = CC_DESIGN_PERSON_AND_ORGANIZATION_ASSIGNMENT ( #211, #227, ( #228 ) ) ;
#119 = ORIENTED_EDGE ( 'NONE', *, *, #113, .T. ) ;
#120 = CARTESIAN_POINT ( 'NONE',  ( 6.349999999999998757, 6.350000000000000533, 3.000000000000000000 ) ) ;
#121 = DATE_AND_TIME ( #82, #204 ) ;
#122 = EDGE_CURVE ( 'NONE', #114, #133, #222, .T. ) ;
#123 = LINE ( 'NONE', #152, #100 ) ;
#124 = CC_DESIGN_APPROVAL ( #110, ( #27 ) ) ;
#125 = PLANE ( 'NONE',  #93 ) ;
#126 = DIRECTION ( 'NONE',  ( 0.0000000000000000000, -0.0000000000000000000, 1.000000000000000000 ) ) ;
#127 = CARTESIAN_POINT ( 'NONE',  ( 0.0000000000000000000, 0.0000000000000000000, -3.000000000000000000 ) ) ;
#128 = EDGE_LOOP ( 'NONE', ( #79, #183, #84, #207 ) ) ;
#129 = DIRECTION ( 'NONE',  ( 0.0000000000000000000, 0.0000000000000000000, -1.000000000000000000 ) ) ;
#130 = VECTOR ( 'NONE', #72, 1000.000000000000000 ) ;
#131 =( NAMED_UNIT ( * ) PLANE_ANGLE_UNIT ( ) SI_UNIT ( $, .RADIAN. ) );
#132 = PERSON_AND_ORGANIZATION_ROLE ( 'creator' ) ;
#133 = VERTEX_POINT ( 'NONE', #52 ) ;
#134 = APPROVAL_PERSON_ORGANIZATION ( #88, #110, #205 ) ;
#135 = APPROVAL_ROLE ( '' ) ;
#136 = VERTEX_POINT ( 'NONE', #198 ) ;
#137 = ORIENTED_EDGE ( 'NONE', *, *, #122, .F. ) ;
#138 = AXIS2_PLACEMENT_3D ( 'NONE', #202, #103, #221 ) ;
#139 = DIRECTION ( 'NONE',  ( 0.0000000000000000000, 0.0000000000000000000, 1.000000000000000000 ) ) ;
#140 = CC_DESIGN_SECURITY_CLASSIFICATION ( #38, ( #228 ) ) ;
#141 = EDGE_CURVE ( 'NONE', #136, #102, #4, .T. ) ;
#142 = DIRECTION ( 'NONE',  ( -1.000000000000000000, -1.365923996832131609E-16, 0.0000000000000000000 ) ) ;
#143 = EDGE_CURVE ( 'NONE', #70, #67, #123, .T. ) ;
#144 = PERSON_AND_ORGANIZATION ( #191, #157 ) ;
#145 = CARTESIAN_POINT ( 'NONE',  ( 6.349999999999998757, -6.349999999999998757, 3.000000000000000000 ) ) ;
#146 = ADVANCED_FACE ( 'NONE', ( #184 ), #40, .F. ) ;
#147 = FACE_OUTER_BOUND ( 'NONE', #128, .T. ) ;
#148 = CARTESIAN_POINT ( 'NONE',  ( 0.0000000000000000000, 0.0000000000000000000, 3.000000000000000000 ) ) ;
#149 = ADVANCED_FACE ( 'NONE', ( #147 ), #37, .F. ) ;
#150 = DIRECTION ( 'NONE',  ( -0.0000000000000000000, -1.000000000000000000, -0.0000000000000000000 ) ) ;
#151 = ADVANCED_FACE ( 'NONE', ( #77 ), #89, .T. ) ;
#152 = CARTESIAN_POINT ( 'NONE',  ( -6.350000000000000533, -6.350000000000000533, -3.000000000000000000 ) ) ;
#153 = CARTESIAN_POINT ( 'NONE',  ( 6.349999999999998757, -6.349999999999998757, -3.000000000000000000 ) ) ;
#154 = DIRECTION ( 'NONE',  ( 1.000000000000000000, 0.0000000000000000000, 0.0000000000000000000 ) ) ;
#155 = ORIENTED_EDGE ( 'NONE', *, *, #116, .F. ) ;
#156 = DATE_TIME_ROLE ( 'creation_date' ) ;
#157 = ORGANIZATION ( 'UNSPECIFIED', 'UNSPECIFIED', '' ) ;
#158 = LINE ( 'NONE', #55, #51 ) ;
#159 = MECHANICAL_CONTEXT ( 'NONE', #44, 'mechanical' ) ;
#160 = AXIS2_PLACEMENT_3D ( 'NONE', #3, #201, #129 ) ;
#161 = CC_DESIGN_PERSON_AND_ORGANIZATION_ASSIGNMENT ( #24, #195, ( #38 ) ) ;
#162 = FACE_OUTER_BOUND ( 'NONE', #181, .T. ) ;
#163 = FACE_OUTER_BOUND ( 'NONE', #187, .T. ) ;
#164 = LOCAL_TIME ( 11, 35, 18.00000000000000000, #63 ) ;
#165 = LINE ( 'NONE', #171, #105 ) ;
#166 = CARTESIAN_POINT ( 'NONE',  ( -6.350000000000000533, -6.350000000000000533, 3.000000000000000000 ) ) ;
#167 = EDGE_LOOP ( 'NONE', ( #29, #48, #45, #231 ) ) ;
#168 = ADVANCED_FACE ( 'NONE', ( #30 ), #125, .F. ) ;
#169 = DIRECTION ( 'NONE',  ( 0.0000000000000000000, 1.000000000000000000, 0.0000000000000000000 ) ) ;
#170 = EDGE_CURVE ( 'NONE', #235, #102, #180, .T. ) ;
#171 = CARTESIAN_POINT ( 'NONE',  ( -6.350000000000000533, 6.349999999999998757, 3.000000000000000000 ) ) ;
#172 = DIRECTION ( 'NONE',  ( 1.000000000000000000, 0.0000000000000000000, -0.0000000000000000000 ) ) ;
#173 = ORIENTED_EDGE ( 'NONE', *, *, #76, .F. ) ;
#174 =( LENGTH_UNIT ( ) NAMED_UNIT ( * ) SI_UNIT ( .MILLI., .METRE. ) );
#175 = EDGE_LOOP ( 'NONE', ( #96, #217, #137, #87 ) ) ;
#176 = APPROVAL_STATUS ( 'not_yet_approved' ) ;
#177 = PRODUCT ( 'Web Model 64397MX_15751', 'Web Model 64397MX_15751', '', ( #159 ) ) ;
#178 = COORDINATED_UNIVERSAL_TIME_OFFSET ( 5, 0, .BEHIND. ) ;
#179 = EDGE_CURVE ( 'NONE', #67, #235, #158, .T. ) ;
#180 = LINE ( 'NONE', #153, #212 ) ;
#181 = EDGE_LOOP ( 'NONE', ( #15, #173, #58, #119 ) ) ;
#182 = EDGE_CURVE ( 'NONE', #102, #70, #20, .T. ) ;
#183 = ORIENTED_EDGE ( 'NONE', *, *, #216, .F. ) ;
#184 = FACE_OUTER_BOUND ( 'NONE', #175, .T. ) ;
#185 = VECTOR ( 'NONE', #237, 1000.000000000000000 ) ;
#186 = VERTEX_POINT ( 'NONE', #107 ) ;
#187 = EDGE_LOOP ( 'NONE', ( #219, #22, #155, #11 ) ) ;
#188 = VECTOR ( 'NONE', #209, 1000.000000000000000 ) ;
#189 = PERSON_AND_ORGANIZATION_ROLE ( 'design_owner' ) ;
#190 = DIRECTION ( 'NONE',  ( 0.0000000000000000000, 0.0000000000000000000, 1.000000000000000000 ) ) ;
#191 = PERSON ( 'UNSPECIFIED', 'UNSPECIFIED', 'UNSPECIFIED', ('UNSPECIFIED'), ('UNSPECIFIED'), ('UNSPECIFIED') ) ;
#192 = APPROVAL_PERSON_ORGANIZATION ( #99, #106, #92 ) ;
#193 = SECURITY_CLASSIFICATION_LEVEL ( 'unclassified' ) ;
#194 = VECTOR ( 'NONE', #10, 1000.000000000000000 ) ;
#195 = PERSON_AND_ORGANIZATION_ROLE ( 'classification_officer' ) ;
#196 = PERSON_AND_ORGANIZATION ( #191, #157 ) ;
#197 = COORDINATED_UNIVERSAL_TIME_OFFSET ( 5, 0, .BEHIND. ) ;
#198 = CARTESIAN_POINT ( 'NONE',  ( 6.349999999999998757, 6.350000000000000533, 3.000000000000000000 ) ) ;
#199 = CARTESIAN_POINT ( 'NONE',  ( -6.350000000000000533, -6.350000000000000533, 3.000000000000000000 ) ) ;
#200 = SHAPE_DEFINITION_REPRESENTATION ( #80, #210 ) ;
#201 = DIRECTION ( 'NONE',  ( 1.000000000000000000, 0.0000000000000000000, 0.0000000000000000000 ) ) ;
#202 = CARTESIAN_POINT ( 'NONE',  ( 6.349999999999998757, 6.350000000000000533, 3.000000000000000000 ) ) ;
#203 = APPLICATION_CONTEXT ( 'configuration controlled 3d designs of mechanical parts and assemblies' ) ;
#204 = LOCAL_TIME ( 11, 35, 18.00000000000000000, #68 ) ;
#205 = APPROVAL_ROLE ( '' ) ;
#206 = DATE_AND_TIME ( #61, #12 ) ;
#207 = ORIENTED_EDGE ( 'NONE', *, *, #141, .T. ) ;
#208 = LOCAL_TIME ( 11, 35, 18.00000000000000000, #178 ) ;
#209 = DIRECTION ( 'NONE',  ( 1.000000000000000000, 1.365923996832131609E-16, -0.0000000000000000000 ) ) ;
#210 = ADVANCED_BREP_SHAPE_REPRESENTATION ( 'Web Model 64397MX_15751', ( #223, #6 ), #65 ) ;
#211 = PERSON_AND_ORGANIZATION ( #191, #157 ) ;
#212 = VECTOR ( 'NONE', #90, 1000.000000000000000 ) ;
#213 = PLANE ( 'NONE',  #230 ) ;
#214 = CC_DESIGN_DATE_AND_TIME_ASSIGNMENT ( #36, #156, ( #27 ) ) ;
#215 = APPROVAL ( #176, 'UNSPECIFIED' ) ;
#216 = EDGE_CURVE ( 'NONE', #114, #70, #165, .T. ) ;
#217 = ORIENTED_EDGE ( 'NONE', *, *, #113, .F. ) ;
#218 = CARTESIAN_POINT ( 'NONE',  ( -6.350000000000000533, 6.349999999999998757, 3.000000000000000000 ) ) ;
#219 = ORIENTED_EDGE ( 'NONE', *, *, #170, .T. ) ;
#220 = DIRECTION ( 'NONE',  ( 1.000000000000000000, 0.0000000000000000000, -0.0000000000000000000 ) ) ;
#221 = DIRECTION ( 'NONE',  ( 1.000000000000000000, 1.365923996832131609E-16, 0.0000000000000000000 ) ) ;
#222 = LINE ( 'NONE', #199, #26 ) ;
#223 = MANIFOLD_SOLID_BREP ( 'Boss-Extrude1', #75 ) ;
#224 = APPROVAL_STATUS ( 'not_yet_approved' ) ;
#225 = COORDINATED_UNIVERSAL_TIME_OFFSET ( 5, 0, .BEHIND. ) ;
#226 = VECTOR ( 'NONE', #21, 1000.000000000000000 ) ;
#227 = PERSON_AND_ORGANIZATION_ROLE ( 'design_supplier' ) ;
#228 = PRODUCT_DEFINITION_FORMATION_WITH_SPECIFIED_SOURCE ( 'ANY', '', #177, .NOT_KNOWN. ) ;
#229 = PRODUCT_RELATED_PRODUCT_CATEGORY ( 'detail', '', ( #177 ) ) ;
#230 = AXIS2_PLACEMENT_3D ( 'NONE', #81, #234, #139 ) ;
#231 = ORIENTED_EDGE ( 'NONE', *, *, #179, .F. ) ;
#232 = DESIGN_CONTEXT ( 'detailed design', #203, 'design' ) ;
#233 = LINE ( 'NONE', #28, #185 ) ;
#234 = DIRECTION ( 'NONE',  ( -1.000000000000000000, 0.0000000000000000000, 0.0000000000000000000 ) ) ;
#235 = VERTEX_POINT ( 'NONE', #5 ) ;
#236 = EDGE_LOOP ( 'NONE', ( #39, #2, #94, #32 ) ) ;
#237 = DIRECTION ( 'NONE',  ( -1.000000000000000000, -1.365923996832131609E-16, 0.0000000000000000000 ) ) ;
ENDSEC;
END-ISO-10303-21;
