ISO-10303-21;
HEADER;
FILE_DESCRIPTION (( 'STEP AP203' ),
    '1' );
FILE_NAME ('TTN023912-E0W.STEP',
    '2014-04-22T14:51:26',
    ( 'admin' ),
    ( '' ),
    'SwSTEP 2.0',
    'SolidWorks 2012',
    '' );
FILE_SCHEMA (( 'CONFIG_CONTROL_DESIGN' ));
ENDSEC;

DATA;
#1 = DESIGN_CONTEXT ( 'detailed design', #47, 'design' ) ;
#2 = PRODUCT_DEFINITION_SHAPE ( 'NONE', 'NONE',  #151 ) ;
#3 = CARTESIAN_POINT ( 'NONE',  ( 0.0000000000000000000, 6.829619984160797300E-017, -0.08543307086614096400 ) ) ;
#4 = DIRECTION ( 'NONE',  ( -0.0000000000000000000, -1.520927702892695000E-015, -1.000000000000000000 ) ) ;
#5 = DIRECTION ( 'NONE',  ( 0.0000000000000000000, 1.000000000000000000, -1.526556658859591600E-015 ) ) ;
#6 = DIRECTION ( 'NONE',  ( 0.0000000000000000000, 1.000000000000000000, 3.073328992872299300E-016 ) ) ;
#7 = DIRECTION ( 'NONE',  ( -0.0000000000000000000, 3.061515884555943100E-016, -1.000000000000000000 ) ) ;
#8 = CARTESIAN_POINT ( 'NONE',  ( 0.0000000000000000000, 1.925583302077458000E-016, -0.003731534277780970000 ) ) ;
#9 = DIRECTION ( 'NONE',  ( -0.0000000000000000000, -1.520927702892695000E-015, -1.000000000000000000 ) ) ;
#10 = DIRECTION ( 'NONE',  ( 0.0000000000000000000, 1.000000000000000000, -1.521135647997164700E-015 ) ) ;
#11 = CARTESIAN_POINT ( 'NONE',  ( 0.0000000000000000000, 1.563928382098034100E-016, -1.317244094488188500 ) ) ;
#12 = DIRECTION ( 'NONE',  ( 0.0000000000000000000, 1.000000000000000000, -1.521135647997164700E-015 ) ) ;
#13 = DIRECTION ( 'NONE',  ( -0.0000000000000000000, -1.520927702892695000E-015, -1.000000000000000000 ) ) ;
#14 = DIRECTION ( 'NONE',  ( 1.000000000000000000, 0.0000000000000000000, -0.0000000000000000000 ) ) ;
#15 = DIRECTION ( 'NONE',  ( 0.0000000000000000000, 1.000000000000000000, 3.895191368534421800E-016 ) ) ;
#16 = DIRECTION ( 'NONE',  ( 0.0000000000000000000, 1.000000000000000000, 3.073328992872299300E-016 ) ) ;
#17 = CARTESIAN_POINT ( 'NONE',  ( 0.0000000000000000000, 1.925583302077458000E-016, -0.003731534277780970000 ) ) ;
#18 = DIRECTION ( 'NONE',  ( -0.0000000000000000000, 3.061515884555943100E-016, -1.000000000000000000 ) ) ;
#19 = CARTESIAN_POINT ( 'NONE',  ( 0.0000000000000000000, 3.693104200897407200E-017, -0.08543307086614181100 ) ) ;
#20 = CARTESIAN_POINT ( 'NONE',  ( 0.0000000000000000000, 3.693104200897404700E-017, -0.08543307086614174200 ) ) ;
#21 = PLANE ( 'NONE',  #144 ) ;
#22 = DIRECTION ( 'NONE',  ( 0.0000000000000000000, -1.000000000000000000, 1.536664496436149700E-015 ) ) ;
#23 = DIRECTION ( 'NONE',  ( 0.0000000000000000000, -1.000000000000000000, 1.536664496436149700E-015 ) ) ;
#24 = DIRECTION ( 'NONE',  ( -0.0000000000000000000, 3.061515884555943100E-016, -1.000000000000000000 ) ) ;
#25 = DIRECTION ( 'NONE',  ( 0.0000000000000000000, 1.000000000000000000, 3.061515884555943100E-016 ) ) ;
#26 = DIRECTION ( 'NONE',  ( 0.0000000000000000000, 1.520927702892695000E-015, 1.000000000000000000 ) ) ;
#27 = CARTESIAN_POINT ( 'NONE',  ( 0.0000000000000000000, 8.027200852580241900E-017, -0.07755905511810946800 ) ) ;
#28 = DIRECTION ( 'NONE',  ( 0.0000000000000000000, 1.520927702892695000E-015, 1.000000000000000000 ) ) ;
#29 = DIRECTION ( 'NONE',  ( 1.000000000000000000, 0.0000000000000000000, -0.0000000000000000000 ) ) ;
#30 = CARTESIAN_POINT ( 'NONE',  ( 0.0000000000000000000, 8.027200852580241900E-017, -0.07755905511810946800 ) ) ;
#31 = CARTESIAN_POINT ( 'NONE',  ( 0.0000000000000000000, 1.563928382098034100E-016, -1.317244094488188500 ) ) ;
#32 = DIRECTION ( 'NONE',  ( 0.0000000000000000000, 1.000000000000000000, -1.521135647997164700E-015 ) ) ;
#33 = DIRECTION ( 'NONE',  ( -0.0000000000000000000, -1.520927702892695000E-015, -1.000000000000000000 ) ) ;
#34 = DIRECTION ( 'NONE',  ( 0.0000000000000000000, 1.000000000000000000, 3.895191368534421800E-016 ) ) ;
#35 =( LENGTH_UNIT ( ) NAMED_UNIT ( * ) SI_UNIT ( $, .METRE. ) );
#36 = CARTESIAN_POINT ( 'NONE',  ( 0.0000000000000000000, 1.925583302077458000E-016, -0.003731534277780970000 ) ) ;
#37 = DIRECTION ( 'NONE',  ( 0.0000000000000000000, 0.0000000000000000000, 1.000000000000000000 ) ) ;
#38 = CARTESIAN_POINT ( 'NONE',  ( 0.0000000000000000000, 0.0000000000000000000, 0.0000000000000000000 ) ) ;
#39 =( CONVERSION_BASED_UNIT ( 'INCH', #194 ) LENGTH_UNIT ( ) NAMED_UNIT ( #177 ) );
#40 =( NAMED_UNIT ( * ) PLANE_ANGLE_UNIT ( ) SI_UNIT ( $, .RADIAN. ) );
#41 =( NAMED_UNIT ( * ) SI_UNIT ( $, .STERADIAN. ) SOLID_ANGLE_UNIT ( ) );
#42 = APPLICATION_PROTOCOL_DEFINITION ( 'international standard', 'config_control_design', 1994, #43 ) ;
#43 = APPLICATION_CONTEXT ( 'configuration controlled 3d designs of mechanical parts and assemblies' ) ;
#44 = DIRECTION ( 'NONE',  ( 1.000000000000000000, 0.0000000000000000000, 0.0000000000000000000 ) ) ;
#45 = MECHANICAL_CONTEXT ( 'NONE', #43, 'mechanical' ) ;
#46 = PERSON_AND_ORGANIZATION_ROLE ( 'design_owner' ) ;
#47 = APPLICATION_CONTEXT ( 'configuration controlled 3d designs of mechanical parts and assemblies' ) ;
#48 = APPLICATION_PROTOCOL_DEFINITION ( 'international standard', 'config_control_design', 1994, #47 ) ;
#49 = APPROVAL_STATUS ( 'not_yet_approved' ) ;
#50 = APPROVAL_ROLE ( '' ) ;
#51 = PERSON_AND_ORGANIZATION_ROLE ( 'creator' ) ;
#52 = DATE_TIME_ROLE ( 'creation_date' ) ;
#53 = APPROVAL_STATUS ( 'not_yet_approved' ) ;
#54 = APPROVAL_ROLE ( '' ) ;
#55 = PERSON_AND_ORGANIZATION_ROLE ( 'creator' ) ;
#56 = PERSON_AND_ORGANIZATION_ROLE ( 'design_supplier' ) ;
#57 = SECURITY_CLASSIFICATION_LEVEL ( 'unclassified' ) ;
#58 = PERSON_AND_ORGANIZATION_ROLE ( 'classification_officer' ) ;
#59 = DATE_TIME_ROLE ( 'classification_date' ) ;
#60 = APPROVAL_STATUS ( 'not_yet_approved' ) ;
#61 = APPROVAL_ROLE ( '' ) ;
#62 = CARTESIAN_POINT ( 'NONE',  ( 6.123233995736759900E-017, 0.4999999999999996100, -0.07755905511811023200 ) ) ;
#63 = CARTESIAN_POINT ( 'NONE',  ( 0.0000000000000000000, 1.563928382098034100E-016, -1.317244094488188500 ) ) ;
#64 = ORIENTED_EDGE ( 'NONE', *, *, #113, .F. ) ;
#65 = ORIENTED_EDGE ( 'NONE', *, *, #115, .F. ) ;
#66 = EDGE_LOOP ( 'NONE', ( #94, #97, #99, #225 ) ) ;
#67 = VERTEX_POINT ( 'NONE', #232 ) ;
#68 = EDGE_LOOP ( 'NONE', ( #222, #221, #65, #224 ) ) ;
#69 = EDGE_LOOP ( 'NONE', ( #73, #71, #64 ) ) ;
#70 = ORIENTED_EDGE ( 'NONE', *, *, #115, .T. ) ;
#71 = ORIENTED_EDGE ( 'NONE', *, *, #116, .T. ) ;
#72 = EDGE_LOOP ( 'NONE', ( #278, #277, #284, #287 ) ) ;
#73 = ORIENTED_EDGE ( 'NONE', *, *, #122, .F. ) ;
#74 = DIRECTION ( 'NONE',  ( -1.224646799147353200E-016, 1.000000000000000000, 0.0000000000000000000 ) ) ;
#75 = DIRECTION ( 'NONE',  ( -0.0000000000000000000, -1.520927702892695000E-015, -1.000000000000000000 ) ) ;
#76 = CARTESIAN_POINT ( 'NONE',  ( 0.0000000000000000000, -0.4999999999999994400, -0.07755905511810870500 ) ) ;
#77 = DIRECTION ( 'NONE',  ( 0.0000000000000000000, 1.000000000000000000, -1.521135647997164700E-015 ) ) ;
#78 = CARTESIAN_POINT ( 'NONE',  ( 0.0000000000000000000, 1.925583302077458000E-016, -0.003731534277780970000 ) ) ;
#79 = CALENDAR_DATE ( 2014, 22, 4 ) ;
#80 = COORDINATED_UNIVERSAL_TIME_OFFSET ( 5, 0, .BEHIND. ) ;
#81 = DATE_AND_TIME ( #79, #83 ) ;
#82 = PERSON_AND_ORGANIZATION ( #301, #263 ) ;
#83 = LOCAL_TIME ( 10, 51, 26.00000000000000000, #80 ) ;
#84 = CIRCLE ( 'NONE', #130, 0.4999999999999995000 ) ;
#85 = CIRCLE ( 'NONE', #131, 1.402677165354332600 ) ;
#86 = LINE ( 'NONE', #76, #93 ) ;
#87 = EDGE_LOOP ( 'NONE', ( #285, #282, #70, #220 ) ) ;
#88 = EDGE_LOOP ( 'NONE', ( #276, #280, #281 ) ) ;
#89 = EDGE_LOOP ( 'NONE', ( #100, #103, #105, #110 ) ) ;
#90 = LINE ( 'NONE', #62, #292 ) ;
#91 = CIRCLE ( 'NONE', #129, 0.4921259842519678500 ) ;
#92 = EDGE_LOOP ( 'NONE', ( #109, #102 ) ) ;
#93 = VECTOR ( 'NONE', #298, 39.37007874015748100 ) ;
#94 = ORIENTED_EDGE ( 'NONE', *, *, #121, .F. ) ;
#95 = VERTEX_POINT ( 'NONE', #231 ) ;
#96 = VERTEX_POINT ( 'NONE', #236 ) ;
#97 = ORIENTED_EDGE ( 'NONE', *, *, #125, .T. ) ;
#98 = VERTEX_POINT ( 'NONE', #268 ) ;
#99 = ORIENTED_EDGE ( 'NONE', *, *, #124, .T. ) ;
#100 = ORIENTED_EDGE ( 'NONE', *, *, #117, .F. ) ;
#101 = VERTEX_POINT ( 'NONE', #235 ) ;
#102 = ORIENTED_EDGE ( 'NONE', *, *, #123, .T. ) ;
#103 = ORIENTED_EDGE ( 'NONE', *, *, #127, .F. ) ;
#104 = VERTEX_POINT ( 'NONE', #267 ) ;
#105 = ORIENTED_EDGE ( 'NONE', *, *, #114, .T. ) ;
#106 = VERTEX_POINT ( 'NONE', #234 ) ;
#107 = VERTEX_POINT ( 'NONE', #288 ) ;
#108 = VERTEX_POINT ( 'NONE', #233 ) ;
#109 = ORIENTED_EDGE ( 'NONE', *, *, #127, .T. ) ;
#110 = ORIENTED_EDGE ( 'NONE', *, *, #126, .T. ) ;
#111 = DIRECTION ( 'NONE',  ( -0.0000000000000000000, -1.520927702892695000E-015, -1.000000000000000000 ) ) ;
#112 = CARTESIAN_POINT ( 'NONE',  ( 0.0000000000000000000, 8.027200852580241900E-017, -0.07755905511810946800 ) ) ;
#113 = EDGE_CURVE ( 'NONE', #107, #108, #91, .T. ) ;
#114 = EDGE_CURVE ( 'NONE', #67, #106, #86, .T. ) ;
#115 = EDGE_CURVE ( 'NONE', #98, #106, #84, .T. ) ;
#116 = EDGE_CURVE ( 'NONE', #96, #108, #85, .T. ) ;
#117 = EDGE_CURVE ( 'NONE', #101, #98, #90, .T. ) ;
#118 = EDGE_CURVE ( 'NONE', #108, #95, #295, .T. ) ;
#119 = EDGE_CURVE ( 'NONE', #107, #104, #291, .T. ) ;
#120 = EDGE_CURVE ( 'NONE', #104, #95, #293, .T. ) ;
#121 = EDGE_CURVE ( 'NONE', #95, #106, #290, .T. ) ;
#122 = EDGE_CURVE ( 'NONE', #96, #107, #289, .T. ) ;
#123 = EDGE_CURVE ( 'NONE', #101, #67, #198, .T. ) ;
#124 = EDGE_CURVE ( 'NONE', #104, #98, #202, .T. ) ;
#125 = EDGE_CURVE ( 'NONE', #95, #104, #200, .T. ) ;
#126 = EDGE_CURVE ( 'NONE', #106, #98, #201, .T. ) ;
#127 = EDGE_CURVE ( 'NONE', #67, #101, #204, .T. ) ;
#128 = EDGE_CURVE ( 'NONE', #108, #107, #190, .T. ) ;
#129 = AXIS2_PLACEMENT_3D ( 'NONE', #78, #75, #77 ) ;
#130 = AXIS2_PLACEMENT_3D ( 'NONE', #112, #111, #178 ) ;
#131 = AXIS2_PLACEMENT_3D ( 'NONE', #63, #299, #74 ) ;
#132 = AXIS2_PLACEMENT_3D ( 'NONE', #244, #245, #246 ) ;
#133 = AXIS2_PLACEMENT_3D ( 'NONE', #248, #249, #250 ) ;
#134 = AXIS2_PLACEMENT_3D ( 'NONE', #252, #253, #254 ) ;
#135 = AXIS2_PLACEMENT_3D ( 'NONE', #255, #256, #257 ) ;
#136 = AXIS2_PLACEMENT_3D ( 'NONE', #258, #259, #260 ) ;
#137 = AXIS2_PLACEMENT_3D ( 'NONE', #3, #4, #5 ) ;
#138 = AXIS2_PLACEMENT_3D ( 'NONE', #8, #9, #10 ) ;
#139 = AXIS2_PLACEMENT_3D ( 'NONE', #11, #14, #15 ) ;
#140 = AXIS2_PLACEMENT_3D ( 'NONE', #17, #13, #12 ) ;
#141 = AXIS2_PLACEMENT_3D ( 'NONE', #261, #7, #6 ) ;
#142 = AXIS2_PLACEMENT_3D ( 'NONE', #27, #26, #22 ) ;
#143 = AXIS2_PLACEMENT_3D ( 'NONE', #20, #18, #16 ) ;
#144 = AXIS2_PLACEMENT_3D ( 'NONE', #19, #24, #25 ) ;
#145 = AXIS2_PLACEMENT_3D ( 'NONE', #30, #28, #23 ) ;
#146 = AXIS2_PLACEMENT_3D ( 'NONE', #36, #33, #32 ) ;
#147 = AXIS2_PLACEMENT_3D ( 'NONE', #31, #29, #34 ) ;
#148 =( GEOMETRIC_REPRESENTATION_CONTEXT ( 3 ) GLOBAL_UNCERTAINTY_ASSIGNED_CONTEXT ( ( #304 ) ) GLOBAL_UNIT_ASSIGNED_CONTEXT ( ( #39, #40, #41 ) ) REPRESENTATION_CONTEXT ( 'NONE', 'WORKASPACE' ) );
#149 = AXIS2_PLACEMENT_3D ( 'NONE', #38, #37, #44 ) ;
#150 = CC_DESIGN_PERSON_AND_ORGANIZATION_ASSIGNMENT ( #262, #46, ( #300 ) ) ;
#151 = PRODUCT_DEFINITION ( 'UNKNOWN', '', #156, #1 ) ;
#152 = APPROVAL ( #49, 'UNSPECIFIED' ) ;
#153 = CC_DESIGN_APPROVAL ( #152, ( #151 ) ) ;
#154 = CC_DESIGN_PERSON_AND_ORGANIZATION_ASSIGNMENT ( #184, #51, ( #151 ) ) ;
#155 = CC_DESIGN_DATE_AND_TIME_ASSIGNMENT ( #81, #52, ( #151 ) ) ;
#156 = PRODUCT_DEFINITION_FORMATION_WITH_SPECIFIED_SOURCE ( 'ANY', '', #300, .NOT_KNOWN. ) ;
#157 = APPROVAL ( #53, 'UNSPECIFIED' ) ;
#158 = CC_DESIGN_APPROVAL ( #157, ( #156 ) ) ;
#159 = CC_DESIGN_PERSON_AND_ORGANIZATION_ASSIGNMENT ( #207, #55, ( #156 ) ) ;
#160 = CC_DESIGN_PERSON_AND_ORGANIZATION_ASSIGNMENT ( #215, #56, ( #156 ) ) ;
#161 = SECURITY_CLASSIFICATION ( '', '', #57 ) ;
#162 = CC_DESIGN_PERSON_AND_ORGANIZATION_ASSIGNMENT ( #205, #58, ( #161 ) ) ;
#163 = CC_DESIGN_DATE_AND_TIME_ASSIGNMENT ( #212, #59, ( #161 ) ) ;
#164 = APPROVAL ( #60, 'UNSPECIFIED' ) ;
#165 = CC_DESIGN_APPROVAL ( #164, ( #161 ) ) ;
#166 = CC_DESIGN_SECURITY_CLASSIFICATION ( #161, ( #156 ) ) ;
#167 = PRODUCT_RELATED_PRODUCT_CATEGORY ( 'detail', '', ( #300 ) ) ;
#168 = ADVANCED_FACE ( 'NONE', ( #203 ), #185, .T. ) ;
#169 = ADVANCED_FACE ( 'NONE', ( #192 ), #187, .T. ) ;
#170 = ADVANCED_FACE ( 'NONE', ( #188 ), #272, .T. ) ;
#171 = ADVANCED_FACE ( 'NONE', ( #186 ), #273, .T. ) ;
#172 = ADVANCED_FACE ( 'NONE', ( #189 ), #21, .T. ) ;
#173 = ADVANCED_FACE ( 'NONE', ( #191 ), #193, .T. ) ;
#174 = ADVANCED_FACE ( 'NONE', ( #269 ), #196, .T. ) ;
#175 = ADVANCED_FACE ( 'NONE', ( #270 ), #271, .T. ) ;
#176 = ADVANCED_FACE ( 'NONE', ( #195 ), #197, .T. ) ;
#177 = DIMENSIONAL_EXPONENTS ( 1.000000000000000000, 0.0000000000000000000, 0.0000000000000000000, 0.0000000000000000000, 0.0000000000000000000, 0.0000000000000000000, 0.0000000000000000000 ) ;
#178 = DIRECTION ( 'NONE',  ( 0.0000000000000000000, 1.000000000000000000, -1.536664496436149700E-015 ) ) ;
#179 = APPROVAL_DATE_TIME ( #181, #152 ) ;
#180 = COORDINATED_UNIVERSAL_TIME_OFFSET ( 5, 0, .BEHIND. ) ;
#181 = DATE_AND_TIME ( #182, #183 ) ;
#182 = CALENDAR_DATE ( 2014, 22, 4 ) ;
#183 = LOCAL_TIME ( 10, 51, 26.00000000000000000, #180 ) ;
#184 = PERSON_AND_ORGANIZATION ( #301, #263 ) ;
#185 = CYLINDRICAL_SURFACE ( 'NONE', #141, 0.4999999999999995000 ) ;
#186 = FACE_OUTER_BOUND ( 'NONE', #66, .T. ) ;
#187 = SPHERICAL_SURFACE ( 'NONE', #139, 1.402677165354332600 ) ;
#188 = FACE_OUTER_BOUND ( 'NONE', #72, .T. ) ;
#189 = FACE_OUTER_BOUND ( 'NONE', #92, .T. ) ;
#190 = CIRCLE ( 'NONE', #138, 0.4921259842519678500 ) ;
#191 = FACE_OUTER_BOUND ( 'NONE', #89, .T. ) ;
#192 = FACE_OUTER_BOUND ( 'NONE', #69, .T. ) ;
#193 = CONICAL_SURFACE ( 'NONE', #142, 0.4999999999999995000, 0.7853981633974492800 ) ;
#194 = LENGTH_MEASURE_WITH_UNIT ( LENGTH_MEASURE( 0.02539999999999999900 ), #35 );
#195 = FACE_OUTER_BOUND ( 'NONE', #274, .T. ) ;
#196 = CONICAL_SURFACE ( 'NONE', #145, 0.4999999999999995000, 0.7853981633974492800 ) ;
#197 = CONICAL_SURFACE ( 'NONE', #146, 0.4921259842519678500, 0.7853981633974499400 ) ;
#198 = CIRCLE ( 'NONE', #134, 0.4921259842519680200 ) ;
#199 = VECTOR ( 'NONE', #247, 39.37007874015748100 ) ;
#200 = CIRCLE ( 'NONE', #135, 0.4999999999999993900 ) ;
#201 = CIRCLE ( 'NONE', #136, 0.4999999999999995000 ) ;
#202 = LINE ( 'NONE', #251, #199 ) ;
#203 = FACE_OUTER_BOUND ( 'NONE', #68, .T. ) ;
#204 = CIRCLE ( 'NONE', #137, 0.4921259842519680200 ) ;
#205 = PERSON_AND_ORGANIZATION ( #301, #263 ) ;
#206 = LOCAL_TIME ( 10, 51, 26.00000000000000000, #211 ) ;
#207 = PERSON_AND_ORGANIZATION ( #301, #263 ) ;
#208 = COORDINATED_UNIVERSAL_TIME_OFFSET ( 5, 0, .BEHIND. ) ;
#209 = APPROVAL_DATE_TIME ( #213, #164 ) ;
#210 = LOCAL_TIME ( 10, 51, 26.00000000000000000, #208 ) ;
#211 = COORDINATED_UNIVERSAL_TIME_OFFSET ( 5, 0, .BEHIND. ) ;
#212 = DATE_AND_TIME ( #214, #206 ) ;
#213 = DATE_AND_TIME ( #218, #210 ) ;
#214 = CALENDAR_DATE ( 2014, 22, 4 ) ;
#215 = PERSON_AND_ORGANIZATION ( #301, #263 ) ;
#216 = PERSON_AND_ORGANIZATION ( #301, #263 ) ;
#217 = APPROVAL_DATE_TIME ( #228, #157 ) ;
#218 = CALENDAR_DATE ( 2014, 22, 4 ) ;
#219 = APPROVAL_PERSON_ORGANIZATION ( #216, #164, #61 ) ;
#220 = ORIENTED_EDGE ( 'NONE', *, *, #114, .F. ) ;
#221 = ORIENTED_EDGE ( 'NONE', *, *, #121, .T. ) ;
#222 = ORIENTED_EDGE ( 'NONE', *, *, #120, .T. ) ;
#223 = CLOSED_SHELL ( 'NONE', ( #169, #170, #174, #168, #171, #173, #172, #176, #175 ) ) ;
#224 = ORIENTED_EDGE ( 'NONE', *, *, #124, .F. ) ;
#225 = ORIENTED_EDGE ( 'NONE', *, *, #126, .F. ) ;
#226 = APPROVAL_PERSON_ORGANIZATION ( #82, #157, #54 ) ;
#227 = COORDINATED_UNIVERSAL_TIME_OFFSET ( 5, 0, .BEHIND. ) ;
#228 = DATE_AND_TIME ( #229, #230 ) ;
#229 = CALENDAR_DATE ( 2014, 22, 4 ) ;
#230 = LOCAL_TIME ( 10, 51, 26.00000000000000000, #227 ) ;
#231 = CARTESIAN_POINT ( 'NONE',  ( 6.123233995736758600E-017, -0.4999999999999991700, -0.01160555002581170100 ) ) ;
#232 = CARTESIAN_POINT ( 'NONE',  ( 0.0000000000000000000, -0.4921259842519679100, -0.08543307086614021500 ) ) ;
#233 = CARTESIAN_POINT ( 'NONE',  ( 6.075019554825444900E-017, -0.4921259842519676300, -0.003731534277780221500 ) ) ;
#234 = CARTESIAN_POINT ( 'NONE',  ( 6.123233995736759900E-017, -0.4999999999999994400, -0.07755905511810870500 ) ) ;
#235 = CARTESIAN_POINT ( 'NONE',  ( 6.075019554825446200E-017, 0.4921259842519680700, -0.08543307086614171400 ) ) ;
#236 = CARTESIAN_POINT ( 'NONE',  ( 0.0000000000000000000, -1.871497990144025600E-016, 0.08543307086614412800 ) ) ;
#237 = DIRECTION ( 'NONE',  ( 8.659560562354941500E-017, 0.7071067811865493500, 0.7071067811865456900 ) ) ;
#238 = CARTESIAN_POINT ( 'NONE',  ( 6.026805113914132500E-017, -0.4921259842519676300, -0.003731534277780221500 ) ) ;
#239 = DIRECTION ( 'NONE',  ( 8.659560562354947600E-017, -0.7071067811865497900, -0.7071067811865452400 ) ) ;
#240 = CARTESIAN_POINT ( 'NONE',  ( 0.0000000000000000000, 0.4921259842519680700, -0.003731534277781718500 ) ) ;
#241 = DIRECTION ( 'NONE',  ( -0.0000000000000000000, 3.061515884555943100E-016, -1.000000000000000000 ) ) ;
#242 = DIRECTION ( 'NONE',  ( 0.0000000000000000000, 0.7071067811865475700, -0.7071067811865474600 ) ) ;
#243 = CARTESIAN_POINT ( 'NONE',  ( 6.123233995736759900E-017, -0.4999999999999994400, -0.08543307086614189400 ) ) ;
#244 = CARTESIAN_POINT ( 'NONE',  ( 0.0000000000000000000, 1.805825215235513800E-016, -0.01160555002581246100 ) ) ;
#245 = DIRECTION ( 'NONE',  ( -0.0000000000000000000, -1.520927702892695000E-015, -1.000000000000000000 ) ) ;
#246 = DIRECTION ( 'NONE',  ( 0.0000000000000000000, 1.000000000000000000, -1.519590446475748200E-015 ) ) ;
#247 = DIRECTION ( 'NONE',  ( -0.0000000000000000000, 3.061515884555943100E-016, -1.000000000000000000 ) ) ;
#248 = CARTESIAN_POINT ( 'NONE',  ( 0.0000000000000000000, 1.563928382098034100E-016, -1.317244094488188500 ) ) ;
#249 = DIRECTION ( 'NONE',  ( -1.000000000000000000, 0.0000000000000000000, 0.0000000000000000000 ) ) ;
#250 = DIRECTION ( 'NONE',  ( 0.0000000000000000000, 0.0000000000000000000, 1.000000000000000000 ) ) ;
#251 = CARTESIAN_POINT ( 'NONE',  ( 0.0000000000000000000, 0.4999999999999996100, -0.08543307086614158900 ) ) ;
#252 = CARTESIAN_POINT ( 'NONE',  ( 0.0000000000000000000, 6.829619984160797300E-017, -0.08543307086614096400 ) ) ;
#253 = DIRECTION ( 'NONE',  ( -0.0000000000000000000, -1.520927702892695000E-015, -1.000000000000000000 ) ) ;
#254 = DIRECTION ( 'NONE',  ( 0.0000000000000000000, 1.000000000000000000, -1.526556658859591600E-015 ) ) ;
#255 = CARTESIAN_POINT ( 'NONE',  ( 0.0000000000000000000, 1.805825215235513800E-016, -0.01160555002581246100 ) ) ;
#256 = DIRECTION ( 'NONE',  ( -0.0000000000000000000, -1.520927702892695000E-015, -1.000000000000000000 ) ) ;
#257 = DIRECTION ( 'NONE',  ( 0.0000000000000000000, 1.000000000000000000, -1.519590446475748200E-015 ) ) ;
#258 = CARTESIAN_POINT ( 'NONE',  ( 0.0000000000000000000, 8.027200852580241900E-017, -0.07755905511810946800 ) ) ;
#259 = DIRECTION ( 'NONE',  ( -0.0000000000000000000, -1.520927702892695000E-015, -1.000000000000000000 ) ) ;
#260 = DIRECTION ( 'NONE',  ( 0.0000000000000000000, 1.000000000000000000, -1.536664496436149700E-015 ) ) ;
#261 = CARTESIAN_POINT ( 'NONE',  ( 0.0000000000000000000, 3.693104200897404700E-017, -0.08543307086614174200 ) ) ;
#262 = PERSON_AND_ORGANIZATION ( #301, #263 ) ;
#263 = ORGANIZATION ( 'UNSPECIFIED', 'UNSPECIFIED', '' ) ;
#264 = PERSON_AND_ORGANIZATION ( #301, #263 ) ;
#265 = SHAPE_DEFINITION_REPRESENTATION ( #2, #302 ) ;
#266 = APPROVAL_PERSON_ORGANIZATION ( #264, #152, #50 ) ;
#267 = CARTESIAN_POINT ( 'NONE',  ( 0.0000000000000000000, 0.4999999999999996100, -0.01160555002581322100 ) ) ;
#268 = CARTESIAN_POINT ( 'NONE',  ( 0.0000000000000000000, 0.4999999999999996100, -0.07755905511811023200 ) ) ;
#269 = FACE_OUTER_BOUND ( 'NONE', #87, .T. ) ;
#270 = FACE_OUTER_BOUND ( 'NONE', #88, .T. ) ;
#271 = SPHERICAL_SURFACE ( 'NONE', #147, 1.402677165354332600 ) ;
#272 = CONICAL_SURFACE ( 'NONE', #140, 0.4921259842519678500, 0.7853981633974499400 ) ;
#273 = CYLINDRICAL_SURFACE ( 'NONE', #143, 0.4999999999999995000 ) ;
#274 = EDGE_LOOP ( 'NONE', ( #283, #286, #275, #279 ) ) ;
#275 = ORIENTED_EDGE ( 'NONE', *, *, #119, .T. ) ;
#276 = ORIENTED_EDGE ( 'NONE', *, *, #116, .F. ) ;
#277 = ORIENTED_EDGE ( 'NONE', *, *, #118, .T. ) ;
#278 = ORIENTED_EDGE ( 'NONE', *, *, #113, .T. ) ;
#279 = ORIENTED_EDGE ( 'NONE', *, *, #125, .F. ) ;
#280 = ORIENTED_EDGE ( 'NONE', *, *, #122, .T. ) ;
#281 = ORIENTED_EDGE ( 'NONE', *, *, #128, .F. ) ;
#282 = ORIENTED_EDGE ( 'NONE', *, *, #117, .T. ) ;
#283 = ORIENTED_EDGE ( 'NONE', *, *, #118, .F. ) ;
#284 = ORIENTED_EDGE ( 'NONE', *, *, #120, .F. ) ;
#285 = ORIENTED_EDGE ( 'NONE', *, *, #123, .F. ) ;
#286 = ORIENTED_EDGE ( 'NONE', *, *, #128, .T. ) ;
#287 = ORIENTED_EDGE ( 'NONE', *, *, #119, .F. ) ;
#288 = CARTESIAN_POINT ( 'NONE',  ( 0.0000000000000000000, 0.4921259842519680700, -0.003731534277781718500 ) ) ;
#289 = CIRCLE ( 'NONE', #133, 1.402677165354332600 ) ;
#290 = LINE ( 'NONE', #243, #294 ) ;
#291 = LINE ( 'NONE', #240, #297 ) ;
#292 = VECTOR ( 'NONE', #237, 39.37007874015748100 ) ;
#293 = CIRCLE ( 'NONE', #132, 0.4999999999999993900 ) ;
#294 = VECTOR ( 'NONE', #241, 39.37007874015748100 ) ;
#295 = LINE ( 'NONE', #238, #296 ) ;
#296 = VECTOR ( 'NONE', #239, 39.37007874015748100 ) ;
#297 = VECTOR ( 'NONE', #242, 39.37007874015748100 ) ;
#298 = DIRECTION ( 'NONE',  ( 0.0000000000000000000, -0.7071067811865471300, 0.7071067811865479100 ) ) ;
#299 = DIRECTION ( 'NONE',  ( 1.000000000000000000, 1.224646799147353200E-016, 3.749275628560213600E-032 ) ) ;
#300 = PRODUCT ( 'TTN023912-E0W', 'TTN023912-E0W', '', ( #45 ) ) ;
#301 = PERSON ( 'UNSPECIFIED', 'UNSPECIFIED', 'UNSPECIFIED', ('UNSPECIFIED'), ('UNSPECIFIED'), ('UNSPECIFIED') ) ;
#302 = ADVANCED_BREP_SHAPE_REPRESENTATION ( 'TTN023912-E0W', ( #303, #149 ), #148 ) ;
#303 = MANIFOLD_SOLID_BREP ( 'TTN023924-1-solid1', #223 ) ;
#304 = UNCERTAINTY_MEASURE_WITH_UNIT (LENGTH_MEASURE( 1.000000000000000100E-005 ), #39, 'distance_accuracy_value', 'NONE');
ENDSEC;
END-ISO-10303-21;
