ISO-10303-21;
HEADER;
FILE_DESCRIPTION (( 'STEP AP203' ),
    '1' );
FILE_NAME ('Web Model 46162_46164.step',
    '2017-04-19T19:15:26',
    ( '' ),
    ( '' ),
    'SwSTEP 2.0',
    'SolidWorks 2016',
    '' );
FILE_SCHEMA (( 'CONFIG_CONTROL_DESIGN' ));
ENDSEC;

DATA;
#1 = VERTEX_POINT ( 'NONE', #109 ) ;
#2 = ORIENTED_EDGE ( 'NONE', *, *, #23, .T. ) ;
#3 = DIRECTION ( 'NONE',  ( 0.0000000000000000000, 0.0000000000000000000, 1.000000000000000000 ) ) ;
#4 = AXIS2_PLACEMENT_3D ( 'NONE', #123, #160, #62 ) ;
#5 = COORDINATED_UNIVERSAL_TIME_OFFSET ( 5, 0, .BEHIND. ) ;
#6 = ORIENTED_EDGE ( 'NONE', *, *, #106, .F. ) ;
#7 = CC_DESIGN_PERSON_AND_ORGANIZATION_ASSIGNMENT ( #100, #143, ( #145 ) ) ;
#8 = DIRECTION ( 'NONE',  ( -0.0000000000000000000, -0.0000000000000000000, -1.000000000000000000 ) ) ;
#9 = PRODUCT_DEFINITION_SHAPE ( 'NONE', 'NONE',  #117 ) ;
#10 = DIRECTION ( 'NONE',  ( 1.000000000000000000, 0.0000000000000000000, 0.0000000000000000000 ) ) ;
#11 = EDGE_LOOP ( 'NONE', ( #6, #118, #44, #2 ) ) ;
#12 = MECHANICAL_CONTEXT ( 'NONE', #157, 'mechanical' ) ;
#13 = PLANE ( 'NONE',  #122 ) ;
#14 = LOCAL_TIME ( 15, 15, 26.00000000000000000, #53 ) ;
#15 = PRODUCT_RELATED_PRODUCT_CATEGORY ( 'detail', '', ( #27 ) ) ;
#16 =( NAMED_UNIT ( * ) SI_UNIT ( $, .STERADIAN. ) SOLID_ANGLE_UNIT ( ) );
#17 = PERSON ( 'UNSPECIFIED', 'UNSPECIFIED', 'UNSPECIFIED', ('UNSPECIFIED'), ('UNSPECIFIED'), ('UNSPECIFIED') ) ;
#18 = APPROVAL_ROLE ( '' ) ;
#19 = ORIENTED_EDGE ( 'NONE', *, *, #46, .F. ) ;
#20 = PERSON_AND_ORGANIZATION_ROLE ( 'design_owner' ) ;
#21 = APPROVAL_DATE_TIME ( #58, #56 ) ;
#22 = SHAPE_DEFINITION_REPRESENTATION ( #9, #164 ) ;
#23 = EDGE_CURVE ( 'NONE', #76, #1, #37, .T. ) ;
#24 = APPROVAL_PERSON_ORGANIZATION ( #61, #56, #48 ) ;
#25 = CC_DESIGN_DATE_AND_TIME_ASSIGNMENT ( #94, #54, ( #137 ) ) ;
#26 = DATE_TIME_ROLE ( 'creation_date' ) ;
#27 = PRODUCT ( 'Web Model 46162_46164', 'Web Model 46162_46164', '', ( #12 ) ) ;
#28 = FACE_OUTER_BOUND ( 'NONE', #11, .T. ) ;
#29 = DIRECTION ( 'NONE',  ( 0.0000000000000000000, 0.0000000000000000000, 1.000000000000000000 ) ) ;
#30 = DIRECTION ( 'NONE',  ( 0.0000000000000000000, 0.0000000000000000000, 1.000000000000000000 ) ) ;
#31 = COORDINATED_UNIVERSAL_TIME_OFFSET ( 5, 0, .BEHIND. ) ;
#32 =( NAMED_UNIT ( * ) PLANE_ANGLE_UNIT ( ) SI_UNIT ( $, .RADIAN. ) );
#33 = UNCERTAINTY_MEASURE_WITH_UNIT (LENGTH_MEASURE( 1.000000000000000100E-005 ), #125, 'distance_accuracy_value', 'NONE');
#34 = LINE ( 'NONE', #169, #97 ) ;
#35 = EDGE_CURVE ( 'NONE', #147, #80, #95, .T. ) ;
#36 = DATE_AND_TIME ( #67, #103 ) ;
#37 = CIRCLE ( 'NONE', #133, 4.500000000000000000 ) ;
#38 = CARTESIAN_POINT ( 'NONE',  ( 4.500000000000000000, 5.510910596163088600E-016, 2.500000000000000000 ) ) ;
#39 = CARTESIAN_POINT ( 'NONE',  ( 0.0000000000000000000, 0.0000000000000000000, 2.500000000000000000 ) ) ;
#40 = CARTESIAN_POINT ( 'NONE',  ( -4.500000000000000000, 0.0000000000000000000, 2.500000000000000000 ) ) ;
#41 = PERSON_AND_ORGANIZATION_ROLE ( 'classification_officer' ) ;
#42 = PERSON_AND_ORGANIZATION ( #17, #92 ) ;
#43 = DIRECTION ( 'NONE',  ( 1.000000000000000000, 0.0000000000000000000, -0.0000000000000000000 ) ) ;
#44 = ORIENTED_EDGE ( 'NONE', *, *, #82, .T. ) ;
#45 = DIRECTION ( 'NONE',  ( 0.0000000000000000000, 0.0000000000000000000, 1.000000000000000000 ) ) ;
#46 = EDGE_CURVE ( 'NONE', #80, #147, #68, .T. ) ;
#47 = PERSON_AND_ORGANIZATION ( #17, #92 ) ;
#48 = APPROVAL_ROLE ( '' ) ;
#49 = APPROVAL_STATUS ( 'not_yet_approved' ) ;
#50 = CC_DESIGN_APPROVAL ( #104, ( #117 ) ) ;
#51 = ORIENTED_EDGE ( 'NONE', *, *, #86, .T. ) ;
#52 = DESIGN_CONTEXT ( 'detailed design', #140, 'design' ) ;
#53 = COORDINATED_UNIVERSAL_TIME_OFFSET ( 5, 0, .BEHIND. ) ;
#54 = DATE_TIME_ROLE ( 'classification_date' ) ;
#55 = AXIS2_PLACEMENT_3D ( 'NONE', #64, #135, #130 ) ;
#56 = APPROVAL ( #49, 'UNSPECIFIED' ) ;
#57 = ADVANCED_FACE ( 'NONE', ( #139 ), #13, .F. ) ;
#58 = DATE_AND_TIME ( #90, #127 ) ;
#59 = AXIS2_PLACEMENT_3D ( 'NONE', #39, #63, #175 ) ;
#60 = CYLINDRICAL_SURFACE ( 'NONE', #128, 4.500000000000000000 ) ;
#61 = PERSON_AND_ORGANIZATION ( #17, #92 ) ;
#62 = DIRECTION ( 'NONE',  ( 1.000000000000000000, 0.0000000000000000000, 0.0000000000000000000 ) ) ;
#63 = DIRECTION ( 'NONE',  ( -0.0000000000000000000, -0.0000000000000000000, -1.000000000000000000 ) ) ;
#64 = CARTESIAN_POINT ( 'NONE',  ( 0.0000000000000000000, 0.0000000000000000000, 2.500000000000000000 ) ) ;
#65 = PERSON_AND_ORGANIZATION ( #17, #92 ) ;
#66 = CIRCLE ( 'NONE', #93, 4.500000000000000000 ) ;
#67 = CALENDAR_DATE ( 2017, 19, 4 ) ;
#68 = CIRCLE ( 'NONE', #4, 4.500000000000000000 ) ;
#69 = PLANE ( 'NONE',  #55 ) ;
#70 = DATE_AND_TIME ( #108, #144 ) ;
#71 = EDGE_LOOP ( 'NONE', ( #150, #110 ) ) ;
#72 = DIRECTION ( 'NONE',  ( 1.000000000000000000, 0.0000000000000000000, 0.0000000000000000000 ) ) ;
#73 = APPROVAL_DATE_TIME ( #115, #104 ) ;
#74 = CARTESIAN_POINT ( 'NONE',  ( 0.0000000000000000000, 0.0000000000000000000, 2.500000000000000000 ) ) ;
#75 = APPROVAL_STATUS ( 'not_yet_approved' ) ;
#76 = VERTEX_POINT ( 'NONE', #102 ) ;
#77 = APPROVAL_PERSON_ORGANIZATION ( #120, #104, #124 ) ;
#78 = CARTESIAN_POINT ( 'NONE',  ( 0.0000000000000000000, 0.0000000000000000000, 0.0000000000000000000 ) ) ;
#79 = ORIENTED_EDGE ( 'NONE', *, *, #35, .T. ) ;
#80 = VERTEX_POINT ( 'NONE', #38 ) ;
#81 = CARTESIAN_POINT ( 'NONE',  ( 0.0000000000000000000, 0.0000000000000000000, 0.0000000000000000000 ) ) ;
#82 = EDGE_CURVE ( 'NONE', #147, #76, #101, .T. ) ;
#83 = AXIS2_PLACEMENT_3D ( 'NONE', #119, #29, #98 ) ;
#84 = CLOSED_SHELL ( 'NONE', ( #155, #107, #170, #57 ) ) ;
#85 = SECURITY_CLASSIFICATION_LEVEL ( 'unclassified' ) ;
#86 = EDGE_CURVE ( 'NONE', #1, #76, #66, .T. ) ;
#87 = CARTESIAN_POINT ( 'NONE',  ( 0.0000000000000000000, 0.0000000000000000000, 0.0000000000000000000 ) ) ;
#88 = APPLICATION_PROTOCOL_DEFINITION ( 'international standard', 'config_control_design', 1994, #140 ) ;
#89 = CARTESIAN_POINT ( 'NONE',  ( 0.0000000000000000000, 0.0000000000000000000, 2.500000000000000000 ) ) ;
#90 = CALENDAR_DATE ( 2017, 19, 4 ) ;
#91 = APPROVAL_STATUS ( 'not_yet_approved' ) ;
#92 = ORGANIZATION ( 'UNSPECIFIED', 'UNSPECIFIED', '' ) ;
#93 = AXIS2_PLACEMENT_3D ( 'NONE', #81, #45, #72 ) ;
#94 = DATE_AND_TIME ( #131, #162 ) ;
#95 = CIRCLE ( 'NONE', #156, 4.500000000000000000 ) ;
#96 = CC_DESIGN_PERSON_AND_ORGANIZATION_ASSIGNMENT ( #151, #20, ( #27 ) ) ;
#97 = VECTOR ( 'NONE', #8, 1000.000000000000000 ) ;
#98 = DIRECTION ( 'NONE',  ( 1.000000000000000000, 0.0000000000000000000, 0.0000000000000000000 ) ) ;
#99 = CC_DESIGN_PERSON_AND_ORGANIZATION_ASSIGNMENT ( #65, #41, ( #137 ) ) ;
#100 = PERSON_AND_ORGANIZATION ( #17, #92 ) ;
#101 = LINE ( 'NONE', #163, #165 ) ;
#102 = CARTESIAN_POINT ( 'NONE',  ( -4.500000000000000000, 0.0000000000000000000, 0.0000000000000000000 ) ) ;
#103 = LOCAL_TIME ( 15, 15, 26.00000000000000000, #141 ) ;
#104 = APPROVAL ( #75, 'UNSPECIFIED' ) ;
#105 = ORIENTED_EDGE ( 'NONE', *, *, #106, .T. ) ;
#106 = EDGE_CURVE ( 'NONE', #80, #1, #34, .T. ) ;
#107 = ADVANCED_FACE ( 'NONE', ( #28 ), #129, .T. ) ;
#108 = CALENDAR_DATE ( 2017, 19, 4 ) ;
#109 = CARTESIAN_POINT ( 'NONE',  ( 4.500000000000000000, 5.510910596163088600E-016, 0.0000000000000000000 ) ) ;
#110 = ORIENTED_EDGE ( 'NONE', *, *, #86, .F. ) ;
#111 = CC_DESIGN_DATE_AND_TIME_ASSIGNMENT ( #70, #26, ( #117 ) ) ;
#112 = DIRECTION ( 'NONE',  ( 0.0000000000000000000, 0.0000000000000000000, 1.000000000000000000 ) ) ;
#113 = ORIENTED_EDGE ( 'NONE', *, *, #46, .T. ) ;
#114 = MANIFOLD_SOLID_BREP ( 'Boss-Extrude1', #84 ) ;
#115 = DATE_AND_TIME ( #148, #14 ) ;
#116 = APPLICATION_PROTOCOL_DEFINITION ( 'international standard', 'config_control_design', 1994, #157 ) ;
#117 = PRODUCT_DEFINITION ( 'UNKNOWN', '', #145, #52 ) ;
#118 = ORIENTED_EDGE ( 'NONE', *, *, #35, .F. ) ;
#119 = CARTESIAN_POINT ( 'NONE',  ( 0.0000000000000000000, 0.0000000000000000000, 0.0000000000000000000 ) ) ;
#120 = PERSON_AND_ORGANIZATION ( #17, #92 ) ;
#121 = CC_DESIGN_PERSON_AND_ORGANIZATION_ASSIGNMENT ( #47, #166, ( #117 ) ) ;
#122 = AXIS2_PLACEMENT_3D ( 'NONE', #87, #3, #43 ) ;
#123 = CARTESIAN_POINT ( 'NONE',  ( 0.0000000000000000000, 0.0000000000000000000, 2.500000000000000000 ) ) ;
#124 = APPROVAL_ROLE ( '' ) ;
#125 =( LENGTH_UNIT ( ) NAMED_UNIT ( * ) SI_UNIT ( .MILLI., .METRE. ) );
#126 = CC_DESIGN_APPROVAL ( #158, ( #145 ) ) ;
#127 = LOCAL_TIME ( 15, 15, 26.00000000000000000, #159 ) ;
#128 = AXIS2_PLACEMENT_3D ( 'NONE', #89, #171, #154 ) ;
#129 = CYLINDRICAL_SURFACE ( 'NONE', #59, 4.500000000000000000 ) ;
#130 = DIRECTION ( 'NONE',  ( 1.000000000000000000, 0.0000000000000000000, -0.0000000000000000000 ) ) ;
#131 = CALENDAR_DATE ( 2017, 19, 4 ) ;
#132 =( GEOMETRIC_REPRESENTATION_CONTEXT ( 3 ) GLOBAL_UNCERTAINTY_ASSIGNED_CONTEXT ( ( #33 ) ) GLOBAL_UNIT_ASSIGNED_CONTEXT ( ( #125, #32, #16 ) ) REPRESENTATION_CONTEXT ( 'NONE', 'WORKASPACE' ) );
#133 = AXIS2_PLACEMENT_3D ( 'NONE', #78, #112, #146 ) ;
#134 = FACE_OUTER_BOUND ( 'NONE', #174, .T. ) ;
#135 = DIRECTION ( 'NONE',  ( 0.0000000000000000000, 0.0000000000000000000, 1.000000000000000000 ) ) ;
#136 = PERSON_AND_ORGANIZATION ( #17, #92 ) ;
#137 = SECURITY_CLASSIFICATION ( '', '', #85 ) ;
#138 = PERSON_AND_ORGANIZATION_ROLE ( 'creator' ) ;
#139 = FACE_OUTER_BOUND ( 'NONE', #71, .T. ) ;
#140 = APPLICATION_CONTEXT ( 'configuration controlled 3d designs of mechanical parts and assemblies' ) ;
#141 = COORDINATED_UNIVERSAL_TIME_OFFSET ( 5, 0, .BEHIND. ) ;
#142 = ORIENTED_EDGE ( 'NONE', *, *, #82, .F. ) ;
#143 = PERSON_AND_ORGANIZATION_ROLE ( 'design_supplier' ) ;
#144 = LOCAL_TIME ( 15, 15, 26.00000000000000000, #5 ) ;
#145 = PRODUCT_DEFINITION_FORMATION_WITH_SPECIFIED_SOURCE ( 'ANY', '', #27, .NOT_KNOWN. ) ;
#146 = DIRECTION ( 'NONE',  ( 1.000000000000000000, 0.0000000000000000000, 0.0000000000000000000 ) ) ;
#147 = VERTEX_POINT ( 'NONE', #40 ) ;
#148 = CALENDAR_DATE ( 2017, 19, 4 ) ;
#149 = EDGE_LOOP ( 'NONE', ( #19, #105, #51, #142 ) ) ;
#150 = ORIENTED_EDGE ( 'NONE', *, *, #23, .F. ) ;
#151 = PERSON_AND_ORGANIZATION ( #17, #92 ) ;
#152 = CC_DESIGN_APPROVAL ( #56, ( #137 ) ) ;
#153 = DIRECTION ( 'NONE',  ( -0.0000000000000000000, -0.0000000000000000000, -1.000000000000000000 ) ) ;
#154 = DIRECTION ( 'NONE',  ( -1.000000000000000000, 0.0000000000000000000, 0.0000000000000000000 ) ) ;
#155 = ADVANCED_FACE ( 'NONE', ( #161 ), #60, .T. ) ;
#156 = AXIS2_PLACEMENT_3D ( 'NONE', #74, #30, #10 ) ;
#157 = APPLICATION_CONTEXT ( 'configuration controlled 3d designs of mechanical parts and assemblies' ) ;
#158 = APPROVAL ( #91, 'UNSPECIFIED' ) ;
#159 = COORDINATED_UNIVERSAL_TIME_OFFSET ( 5, 0, .BEHIND. ) ;
#160 = DIRECTION ( 'NONE',  ( 0.0000000000000000000, 0.0000000000000000000, 1.000000000000000000 ) ) ;
#161 = FACE_OUTER_BOUND ( 'NONE', #149, .T. ) ;
#162 = LOCAL_TIME ( 15, 15, 26.00000000000000000, #31 ) ;
#163 = CARTESIAN_POINT ( 'NONE',  ( -4.500000000000000000, 0.0000000000000000000, 2.500000000000000000 ) ) ;
#164 = ADVANCED_BREP_SHAPE_REPRESENTATION ( 'Web Model 46162_46164', ( #114, #83 ), #132 ) ;
#165 = VECTOR ( 'NONE', #153, 1000.000000000000000 ) ;
#166 = PERSON_AND_ORGANIZATION_ROLE ( 'creator' ) ;
#167 = APPROVAL_DATE_TIME ( #36, #158 ) ;
#168 = CC_DESIGN_PERSON_AND_ORGANIZATION_ASSIGNMENT ( #136, #138, ( #145 ) ) ;
#169 = CARTESIAN_POINT ( 'NONE',  ( 4.500000000000000000, 5.510910596163088600E-016, 2.500000000000000000 ) ) ;
#170 = ADVANCED_FACE ( 'NONE', ( #134 ), #69, .T. ) ;
#171 = DIRECTION ( 'NONE',  ( -0.0000000000000000000, -0.0000000000000000000, -1.000000000000000000 ) ) ;
#172 = APPROVAL_PERSON_ORGANIZATION ( #42, #158, #18 ) ;
#173 = CC_DESIGN_SECURITY_CLASSIFICATION ( #137, ( #145 ) ) ;
#174 = EDGE_LOOP ( 'NONE', ( #79, #113 ) ) ;
#175 = DIRECTION ( 'NONE',  ( -1.000000000000000000, 0.0000000000000000000, 0.0000000000000000000 ) ) ;
ENDSEC;
END-ISO-10303-21;
