ISO-10303-21;
HEADER;
FILE_DESCRIPTION (( 'STEP AP203' ),
    '1' );
FILE_NAME ('Web Model 20207_20215.step',
    '2022-03-01T15:56:13',
    ( '' ),
    ( '' ),
    'SwSTEP 2.0',
    'SolidWorks 2021',
    '' );
FILE_SCHEMA (( 'CONFIG_CONTROL_DESIGN' ));
ENDSEC;

DATA;
#1 = ORIENTED_EDGE ( 'NONE', *, *, #10, .T. ) ;
#2 = PRODUCT_DEFINITION_SHAPE ( 'NONE', 'NONE',  #137 ) ;
#3 = CARTESIAN_POINT ( 'NONE',  ( 0.000000000000000000, 0.000000000000000000, 0.1000000000000000056 ) ) ;
#4 = DIRECTION ( 'NONE',  ( -0.000000000000000000, -0.000000000000000000, -1.000000000000000000 ) ) ;
#5 = AXIS2_PLACEMENT_3D ( 'NONE', #140, #166, #6 ) ;
#6 = DIRECTION ( 'NONE',  ( 1.000000000000000000, 0.000000000000000000, -0.000000000000000000 ) ) ;
#7 = APPROVAL ( #40, 'UNSPECIFIED' ) ;
#8 = PERSON_AND_ORGANIZATION ( #173, #77 ) ;
#9 = DATE_AND_TIME ( #162, #130 ) ;
#10 = EDGE_CURVE ( 'NONE', #119, #41, #142, .T. ) ;
#11 = PERSON_AND_ORGANIZATION ( #173, #77 ) ;
#12 = APPLICATION_CONTEXT ( 'configuration controlled 3d designs of mechanical parts and assemblies' ) ;
#13 = EDGE_CURVE ( 'NONE', #41, #67, #74, .T. ) ;
#14 = PERSON_AND_ORGANIZATION_ROLE ( 'creator' ) ;
#15 = ORIENTED_EDGE ( 'NONE', *, *, #155, .F. ) ;
#16 = CALENDAR_DATE ( 2022, 1, 3 ) ;
#17 = APPLICATION_CONTEXT ( 'configuration controlled 3d designs of mechanical parts and assemblies' ) ;
#18 = EDGE_LOOP ( 'NONE', ( #133, #1 ) ) ;
#19 = ORIENTED_EDGE ( 'NONE', *, *, #13, .F. ) ;
#20 = APPLICATION_PROTOCOL_DEFINITION ( 'international standard', 'config_control_design', 1994, #17 ) ;
#21 = CYLINDRICAL_SURFACE ( 'NONE', #122, 25.00000000000000000 ) ;
#22 = DIRECTION ( 'NONE',  ( 1.000000000000000000, 0.000000000000000000, 0.000000000000000000 ) ) ;
#23 = AXIS2_PLACEMENT_3D ( 'NONE', #29, #138, #48 ) ;
#24 = CC_DESIGN_PERSON_AND_ORGANIZATION_ASSIGNMENT ( #38, #14, ( #135 ) ) ;
#25 = LOCAL_TIME ( 10, 56, 13.00000000000000000, #147 ) ;
#26 = PERSON_AND_ORGANIZATION ( #173, #77 ) ;
#27 = APPROVAL_DATE_TIME ( #170, #7 ) ;
#28 = ORIENTED_EDGE ( 'NONE', *, *, #13, .T. ) ;
#29 = CARTESIAN_POINT ( 'NONE',  ( 0.000000000000000000, 0.000000000000000000, 0.1000000000000000056 ) ) ;
#30 = PLANE ( 'NONE',  #5 ) ;
#31 = LOCAL_TIME ( 10, 56, 13.00000000000000000, #114 ) ;
#32 = CARTESIAN_POINT ( 'NONE',  ( 25.00000000000000000, 3.061616997868383043E-15, 0.1000000000000000056 ) ) ;
#33 = DIRECTION ( 'NONE',  ( -0.000000000000000000, -0.000000000000000000, -1.000000000000000000 ) ) ;
#34 = CALENDAR_DATE ( 2022, 1, 3 ) ;
#35 = AXIS2_PLACEMENT_3D ( 'NONE', #121, #73, #45 ) ;
#36 = COORDINATED_UNIVERSAL_TIME_OFFSET ( 5, 0, .BEHIND. ) ;
#37 = APPROVAL_DATE_TIME ( #103, #172 ) ;
#38 = PERSON_AND_ORGANIZATION ( #173, #77 ) ;
#39 = VERTEX_POINT ( 'NONE', #136 ) ;
#40 = APPROVAL_STATUS ( 'not_yet_approved' ) ;
#41 = VERTEX_POINT ( 'NONE', #97 ) ;
#42 = CARTESIAN_POINT ( 'NONE',  ( 0.000000000000000000, 0.000000000000000000, 0.1000000000000000056 ) ) ;
#43 = EDGE_CURVE ( 'NONE', #119, #39, #87, .T. ) ;
#44 = CIRCLE ( 'NONE', #23, 25.00000000000000000 ) ;
#45 = DIRECTION ( 'NONE',  ( 1.000000000000000000, 0.000000000000000000, -0.000000000000000000 ) ) ;
#46 = CC_DESIGN_DATE_AND_TIME_ASSIGNMENT ( #158, #53, ( #137 ) ) ;
#47 = DIRECTION ( 'NONE',  ( -1.000000000000000000, 0.000000000000000000, 0.000000000000000000 ) ) ;
#48 = DIRECTION ( 'NONE',  ( 1.000000000000000000, 0.000000000000000000, 0.000000000000000000 ) ) ;
#49 = PERSON_AND_ORGANIZATION ( #173, #77 ) ;
#50 = PERSON_AND_ORGANIZATION ( #173, #77 ) ;
#51 = DATE_TIME_ROLE ( 'classification_date' ) ;
#52 = AXIS2_PLACEMENT_3D ( 'NONE', #168, #156, #105 ) ;
#53 = DATE_TIME_ROLE ( 'creation_date' ) ;
#54 = ORIENTED_EDGE ( 'NONE', *, *, #104, .T. ) ;
#55 = CARTESIAN_POINT ( 'NONE',  ( -25.00000000000000000, 0.000000000000000000, 0.1000000000000000056 ) ) ;
#56 = DIRECTION ( 'NONE',  ( 0.000000000000000000, 0.000000000000000000, 1.000000000000000000 ) ) ;
#57 = FACE_OUTER_BOUND ( 'NONE', #102, .T. ) ;
#58 =( NAMED_UNIT ( * ) PLANE_ANGLE_UNIT ( ) SI_UNIT ( $, .RADIAN. ) );
#59 = AXIS2_PLACEMENT_3D ( 'NONE', #154, #4, #157 ) ;
#60 = UNCERTAINTY_MEASURE_WITH_UNIT (LENGTH_MEASURE( 1.000000000000000082E-05 ), #126, 'distance_accuracy_value', 'NONE');
#61 = DATE_AND_TIME ( #115, #25 ) ;
#62 = PERSON_AND_ORGANIZATION_ROLE ( 'classification_officer' ) ;
#63 = MANIFOLD_SOLID_BREP ( 'Boss-Extrude1', #174 ) ;
#64 = MECHANICAL_CONTEXT ( 'NONE', #17, 'mechanical' ) ;
#65 = APPROVAL_PERSON_ORGANIZATION ( #49, #172, #66 ) ;
#66 = APPROVAL_ROLE ( '' ) ;
#67 = VERTEX_POINT ( 'NONE', #86 ) ;
#68 = ORIENTED_EDGE ( 'NONE', *, *, #43, .F. ) ;
#69 = ORIENTED_EDGE ( 'NONE', *, *, #104, .F. ) ;
#70 = ADVANCED_FACE ( 'NONE', ( #57 ), #94, .T. ) ;
#71 = ADVANCED_BREP_SHAPE_REPRESENTATION ( 'Web Model 20207_20215', ( #63, #99 ), #131 ) ;
#72 = ADVANCED_FACE ( 'NONE', ( #125 ), #110, .F. ) ;
#73 = DIRECTION ( 'NONE',  ( 0.000000000000000000, 0.000000000000000000, 1.000000000000000000 ) ) ;
#74 = LINE ( 'NONE', #55, #116 ) ;
#75 = AXIS2_PLACEMENT_3D ( 'NONE', #95, #56, #22 ) ;
#76 = ADVANCED_FACE ( 'NONE', ( #123 ), #21, .T. ) ;
#77 = ORGANIZATION ( 'UNSPECIFIED', 'UNSPECIFIED', '' ) ;
#78 = CC_DESIGN_PERSON_AND_ORGANIZATION_ASSIGNMENT ( #145, #160, ( #137 ) ) ;
#79 = CC_DESIGN_APPROVAL ( #7, ( #137 ) ) ;
#80 = PRODUCT_RELATED_PRODUCT_CATEGORY ( 'detail', '', ( #134 ) ) ;
#81 = APPROVAL_DATE_TIME ( #9, #161 ) ;
#82 = ORIENTED_EDGE ( 'NONE', *, *, #10, .F. ) ;
#83 = EDGE_CURVE ( 'NONE', #67, #39, #127, .T. ) ;
#84 = EDGE_LOOP ( 'NONE', ( #68, #15, #28, #91 ) ) ;
#85 = CARTESIAN_POINT ( 'NONE',  ( 0.000000000000000000, 0.000000000000000000, 0.000000000000000000 ) ) ;
#86 = CARTESIAN_POINT ( 'NONE',  ( -25.00000000000000000, 0.000000000000000000, 0.000000000000000000 ) ) ;
#87 = LINE ( 'NONE', #152, #148 ) ;
#88 = PERSON_AND_ORGANIZATION_ROLE ( 'design_owner' ) ;
#89 = CALENDAR_DATE ( 2022, 1, 3 ) ;
#90 = CC_DESIGN_PERSON_AND_ORGANIZATION_ASSIGNMENT ( #26, #88, ( #134 ) ) ;
#91 = ORIENTED_EDGE ( 'NONE', *, *, #83, .T. ) ;
#92 = EDGE_LOOP ( 'NONE', ( #163, #69 ) ) ;
#93 = CC_DESIGN_PERSON_AND_ORGANIZATION_ASSIGNMENT ( #11, #62, ( #153 ) ) ;
#94 = CYLINDRICAL_SURFACE ( 'NONE', #59, 25.00000000000000000 ) ;
#95 = CARTESIAN_POINT ( 'NONE',  ( 0.000000000000000000, 0.000000000000000000, 0.000000000000000000 ) ) ;
#96 = DIRECTION ( 'NONE',  ( -0.000000000000000000, -0.000000000000000000, -1.000000000000000000 ) ) ;
#97 = CARTESIAN_POINT ( 'NONE',  ( -25.00000000000000000, 0.000000000000000000, 0.1000000000000000056 ) ) ;
#98 = COORDINATED_UNIVERSAL_TIME_OFFSET ( 5, 0, .BEHIND. ) ;
#99 = AXIS2_PLACEMENT_3D ( 'NONE', #85, #128, #101 ) ;
#100 = APPLICATION_PROTOCOL_DEFINITION ( 'international standard', 'config_control_design', 1994, #12 ) ;
#101 = DIRECTION ( 'NONE',  ( 1.000000000000000000, 0.000000000000000000, 0.000000000000000000 ) ) ;
#102 = EDGE_LOOP ( 'NONE', ( #82, #118, #54, #19 ) ) ;
#103 = DATE_AND_TIME ( #89, #108 ) ;
#104 = EDGE_CURVE ( 'NONE', #39, #67, #151, .T. ) ;
#105 = DIRECTION ( 'NONE',  ( 1.000000000000000000, 0.000000000000000000, 0.000000000000000000 ) ) ;
#106 = AXIS2_PLACEMENT_3D ( 'NONE', #42, #165, #167 ) ;
#107 = FACE_OUTER_BOUND ( 'NONE', #18, .T. ) ;
#108 = LOCAL_TIME ( 10, 56, 13.00000000000000000, #117 ) ;
#109 = DIRECTION ( 'NONE',  ( -0.000000000000000000, -0.000000000000000000, -1.000000000000000000 ) ) ;
#110 = PLANE ( 'NONE',  #35 ) ;
#111 =( NAMED_UNIT ( * ) SI_UNIT ( $, .STERADIAN. ) SOLID_ANGLE_UNIT ( ) );
#112 = CC_DESIGN_SECURITY_CLASSIFICATION ( #153, ( #135 ) ) ;
#113 = CC_DESIGN_DATE_AND_TIME_ASSIGNMENT ( #61, #51, ( #153 ) ) ;
#114 = COORDINATED_UNIVERSAL_TIME_OFFSET ( 5, 0, .BEHIND. ) ;
#115 = CALENDAR_DATE ( 2022, 1, 3 ) ;
#116 = VECTOR ( 'NONE', #33, 1000.000000000000000 ) ;
#117 = COORDINATED_UNIVERSAL_TIME_OFFSET ( 5, 0, .BEHIND. ) ;
#118 = ORIENTED_EDGE ( 'NONE', *, *, #43, .T. ) ;
#119 = VERTEX_POINT ( 'NONE', #32 ) ;
#120 = CC_DESIGN_APPROVAL ( #161, ( #135 ) ) ;
#121 = CARTESIAN_POINT ( 'NONE',  ( 0.000000000000000000, 0.000000000000000000, 0.000000000000000000 ) ) ;
#122 = AXIS2_PLACEMENT_3D ( 'NONE', #3, #96, #47 ) ;
#123 = FACE_OUTER_BOUND ( 'NONE', #84, .T. ) ;
#124 = LOCAL_TIME ( 10, 56, 13.00000000000000000, #98 ) ;
#125 = FACE_OUTER_BOUND ( 'NONE', #92, .T. ) ;
#126 =( LENGTH_UNIT ( ) NAMED_UNIT ( * ) SI_UNIT ( .MILLI., .METRE. ) );
#127 = CIRCLE ( 'NONE', #52, 25.00000000000000000 ) ;
#128 = DIRECTION ( 'NONE',  ( 0.000000000000000000, 0.000000000000000000, 1.000000000000000000 ) ) ;
#129 = PERSON_AND_ORGANIZATION ( #173, #77 ) ;
#130 = LOCAL_TIME ( 10, 56, 13.00000000000000000, #36 ) ;
#131 =( GEOMETRIC_REPRESENTATION_CONTEXT ( 3 ) GLOBAL_UNCERTAINTY_ASSIGNED_CONTEXT ( ( #60 ) ) GLOBAL_UNIT_ASSIGNED_CONTEXT ( ( #126, #58, #111 ) ) REPRESENTATION_CONTEXT ( 'NONE', 'WORKASPACE' ) );
#132 = APPROVAL_ROLE ( '' ) ;
#133 = ORIENTED_EDGE ( 'NONE', *, *, #155, .T. ) ;
#134 = PRODUCT ( 'Web Model 20207_20215', 'Web Model 20207_20215', '', ( #64 ) ) ;
#135 = PRODUCT_DEFINITION_FORMATION_WITH_SPECIFIED_SOURCE ( 'ANY', '', #134, .NOT_KNOWN. ) ;
#136 = CARTESIAN_POINT ( 'NONE',  ( 25.00000000000000000, 3.061616997868383043E-15, 0.000000000000000000 ) ) ;
#137 = PRODUCT_DEFINITION ( 'UNKNOWN', '', #135, #144 ) ;
#138 = DIRECTION ( 'NONE',  ( 0.000000000000000000, 0.000000000000000000, 1.000000000000000000 ) ) ;
#139 = APPROVAL_PERSON_ORGANIZATION ( #50, #7, #132 ) ;
#140 = CARTESIAN_POINT ( 'NONE',  ( 0.000000000000000000, 0.000000000000000000, 0.1000000000000000056 ) ) ;
#141 = SHAPE_DEFINITION_REPRESENTATION ( #2, #71 ) ;
#142 = CIRCLE ( 'NONE', #106, 25.00000000000000000 ) ;
#143 = APPROVAL_STATUS ( 'not_yet_approved' ) ;
#144 = DESIGN_CONTEXT ( 'detailed design', #12, 'design' ) ;
#145 = PERSON_AND_ORGANIZATION ( #173, #77 ) ;
#146 = CC_DESIGN_PERSON_AND_ORGANIZATION_ASSIGNMENT ( #129, #171, ( #135 ) ) ;
#147 = COORDINATED_UNIVERSAL_TIME_OFFSET ( 5, 0, .BEHIND. ) ;
#148 = VECTOR ( 'NONE', #109, 1000.000000000000000 ) ;
#149 = APPROVAL_PERSON_ORGANIZATION ( #8, #161, #175 ) ;
#150 = ADVANCED_FACE ( 'NONE', ( #107 ), #30, .T. ) ;
#151 = CIRCLE ( 'NONE', #75, 25.00000000000000000 ) ;
#152 = CARTESIAN_POINT ( 'NONE',  ( 25.00000000000000000, 3.061616997868383043E-15, 0.1000000000000000056 ) ) ;
#153 = SECURITY_CLASSIFICATION ( '', '', #164 ) ;
#154 = CARTESIAN_POINT ( 'NONE',  ( 0.000000000000000000, 0.000000000000000000, 0.1000000000000000056 ) ) ;
#155 = EDGE_CURVE ( 'NONE', #41, #119, #44, .T. ) ;
#156 = DIRECTION ( 'NONE',  ( 0.000000000000000000, 0.000000000000000000, 1.000000000000000000 ) ) ;
#157 = DIRECTION ( 'NONE',  ( -1.000000000000000000, 0.000000000000000000, 0.000000000000000000 ) ) ;
#158 = DATE_AND_TIME ( #34, #124 ) ;
#159 = APPROVAL_STATUS ( 'not_yet_approved' ) ;
#160 = PERSON_AND_ORGANIZATION_ROLE ( 'creator' ) ;
#161 = APPROVAL ( #143, 'UNSPECIFIED' ) ;
#162 = CALENDAR_DATE ( 2022, 1, 3 ) ;
#163 = ORIENTED_EDGE ( 'NONE', *, *, #83, .F. ) ;
#164 = SECURITY_CLASSIFICATION_LEVEL ( 'unclassified' ) ;
#165 = DIRECTION ( 'NONE',  ( 0.000000000000000000, 0.000000000000000000, 1.000000000000000000 ) ) ;
#166 = DIRECTION ( 'NONE',  ( 0.000000000000000000, 0.000000000000000000, 1.000000000000000000 ) ) ;
#167 = DIRECTION ( 'NONE',  ( 1.000000000000000000, 0.000000000000000000, 0.000000000000000000 ) ) ;
#168 = CARTESIAN_POINT ( 'NONE',  ( 0.000000000000000000, 0.000000000000000000, 0.000000000000000000 ) ) ;
#169 = CC_DESIGN_APPROVAL ( #172, ( #153 ) ) ;
#170 = DATE_AND_TIME ( #16, #31 ) ;
#171 = PERSON_AND_ORGANIZATION_ROLE ( 'design_supplier' ) ;
#172 = APPROVAL ( #159, 'UNSPECIFIED' ) ;
#173 = PERSON ( 'UNSPECIFIED', 'UNSPECIFIED', 'UNSPECIFIED', ('UNSPECIFIED'), ('UNSPECIFIED'), ('UNSPECIFIED') ) ;
#174 = CLOSED_SHELL ( 'NONE', ( #70, #76, #150, #72 ) ) ;
#175 = APPROVAL_ROLE ( '' ) ;
ENDSEC;
END-ISO-10303-21;
