ISO-10303-21;
HEADER;
FILE_DESCRIPTION (( 'STEP AP203' ),
    '1' );
FILE_NAME ('Web Model 64402MX_43005.step',
    '2017-10-30T13:09:48',
    ( '' ),
    ( '' ),
    'SwSTEP 2.0',
    'SolidWorks 2016',
    '' );
FILE_SCHEMA (( 'CONFIG_CONTROL_DESIGN' ));
ENDSEC;

DATA;
#1 = APPROVAL_PERSON_ORGANIZATION ( #87, #169, #175 ) ;
#2 = SHAPE_DEFINITION_REPRESENTATION ( #123, #199 ) ;
#3 = PRODUCT_RELATED_PRODUCT_CATEGORY ( 'detail', '', ( #11 ) ) ;
#4 = VERTEX_POINT ( 'NONE', #128 ) ;
#5 = DIRECTION ( 'NONE',  ( -1.000000000000000000, -1.387778780781445700E-016, 0.0000000000000000000 ) ) ;
#6 = DIRECTION ( 'NONE',  ( -1.000000000000000000, -1.387778780781445700E-016, 0.0000000000000000000 ) ) ;
#7 = CARTESIAN_POINT ( 'NONE',  ( 12.49999999999999800, -12.49999999999999600, 4.750000000000000000 ) ) ;
#8 = AXIS2_PLACEMENT_3D ( 'NONE', #66, #167, #82 ) ;
#9 = COORDINATED_UNIVERSAL_TIME_OFFSET ( 5, 0, .BEHIND. ) ;
#10 = ORIENTED_EDGE ( 'NONE', *, *, #27, .T. ) ;
#11 = PRODUCT ( 'Web Model 64402MX_43005', 'Web Model 64402MX_43005', '', ( #229 ) ) ;
#12 = DIRECTION ( 'NONE',  ( 0.0000000000000000000, 1.000000000000000000, 0.0000000000000000000 ) ) ;
#13 = DIRECTION ( 'NONE',  ( 1.000000000000000000, 0.0000000000000000000, -0.0000000000000000000 ) ) ;
#14 = ORIENTED_EDGE ( 'NONE', *, *, #37, .T. ) ;
#15 = CARTESIAN_POINT ( 'NONE',  ( 12.49999999999999800, 12.50000000000000400, -4.750000000000000000 ) ) ;
#16 = COORDINATED_UNIVERSAL_TIME_OFFSET ( 5, 0, .BEHIND. ) ;
#17 = VECTOR ( 'NONE', #69, 1000.000000000000000 ) ;
#18 = ORGANIZATION ( 'UNSPECIFIED', 'UNSPECIFIED', '' ) ;
#19 = ORIENTED_EDGE ( 'NONE', *, *, #214, .F. ) ;
#20 = CC_DESIGN_APPROVAL ( #169, ( #162 ) ) ;
#21 = FACE_OUTER_BOUND ( 'NONE', #29, .T. ) ;
#22 = CARTESIAN_POINT ( 'NONE',  ( -12.50000000000000200, 12.50000000000000000, 4.750000000000000000 ) ) ;
#23 = EDGE_CURVE ( 'NONE', #46, #209, #105, .T. ) ;
#24 = DIRECTION ( 'NONE',  ( -0.0000000000000000000, -0.0000000000000000000, -1.000000000000000000 ) ) ;
#25 = CARTESIAN_POINT ( 'NONE',  ( -12.50000000000000200, -12.50000000000000000, -4.750000000000000000 ) ) ;
#26 = PERSON ( 'UNSPECIFIED', 'UNSPECIFIED', 'UNSPECIFIED', ('UNSPECIFIED'), ('UNSPECIFIED'), ('UNSPECIFIED') ) ;
#27 = EDGE_CURVE ( 'NONE', #46, #45, #236, .T. ) ;
#28 = APPLICATION_CONTEXT ( 'configuration controlled 3d designs of mechanical parts and assemblies' ) ;
#29 = EDGE_LOOP ( 'NONE', ( #228, #121, #19, #187 ) ) ;
#30 = DIRECTION ( 'NONE',  ( 1.000000000000000000, 1.387778780781445700E-016, -0.0000000000000000000 ) ) ;
#31 = APPROVAL_ROLE ( '' ) ;
#32 = VERTEX_POINT ( 'NONE', #223 ) ;
#33 = CC_DESIGN_PERSON_AND_ORGANIZATION_ASSIGNMENT ( #40, #63, ( #216 ) ) ;
#34 = LOCAL_TIME ( 9, 9, 48.00000000000000000, #61 ) ;
#35 = ORIENTED_EDGE ( 'NONE', *, *, #42, .T. ) ;
#36 = CLOSED_SHELL ( 'NONE', ( #213, #88, #156, #90, #153, #190 ) ) ;
#37 = EDGE_CURVE ( 'NONE', #45, #106, #56, .T. ) ;
#38 = LOCAL_TIME ( 9, 9, 48.00000000000000000, #108 ) ;
#39 = APPROVAL_STATUS ( 'not_yet_approved' ) ;
#40 = PERSON_AND_ORGANIZATION ( #26, #18 ) ;
#41 = LINE ( 'NONE', #68, #17 ) ;
#42 = EDGE_CURVE ( 'NONE', #4, #32, #64, .T. ) ;
#43 = EDGE_LOOP ( 'NONE', ( #118, #122, #75, #35 ) ) ;
#44 = CARTESIAN_POINT ( 'NONE',  ( 12.49999999999999800, -12.49999999999999600, 4.750000000000000000 ) ) ;
#45 = VERTEX_POINT ( 'NONE', #22 ) ;
#46 = VERTEX_POINT ( 'NONE', #142 ) ;
#47 = CARTESIAN_POINT ( 'NONE',  ( 12.49999999999999800, 12.50000000000000400, 4.750000000000000000 ) ) ;
#48 = APPROVAL_DATE_TIME ( #79, #184 ) ;
#49 = PLANE ( 'NONE',  #52 ) ;
#50 = PLANE ( 'NONE',  #165 ) ;
#51 = DIRECTION ( 'NONE',  ( 0.0000000000000000000, 0.0000000000000000000, 1.000000000000000000 ) ) ;
#52 = AXIS2_PLACEMENT_3D ( 'NONE', #97, #80, #182 ) ;
#53 =( LENGTH_UNIT ( ) NAMED_UNIT ( * ) SI_UNIT ( .MILLI., .METRE. ) );
#54 = PERSON_AND_ORGANIZATION_ROLE ( 'creator' ) ;
#55 = DATE_AND_TIME ( #218, #163 ) ;
#56 = LINE ( 'NONE', #180, #146 ) ;
#57 =( GEOMETRIC_REPRESENTATION_CONTEXT ( 3 ) GLOBAL_UNCERTAINTY_ASSIGNED_CONTEXT ( ( #168 ) ) GLOBAL_UNIT_ASSIGNED_CONTEXT ( ( #53, #114, #135 ) ) REPRESENTATION_CONTEXT ( 'NONE', 'WORKASPACE' ) );
#58 = ORIENTED_EDGE ( 'NONE', *, *, #23, .T. ) ;
#59 = DATE_TIME_ROLE ( 'creation_date' ) ;
#60 = EDGE_CURVE ( 'NONE', #45, #215, #98, .T. ) ;
#61 = COORDINATED_UNIVERSAL_TIME_OFFSET ( 5, 0, .BEHIND. ) ;
#62 = VECTOR ( 'NONE', #30, 1000.000000000000000 ) ;
#63 = PERSON_AND_ORGANIZATION_ROLE ( 'classification_officer' ) ;
#64 = LINE ( 'NONE', #7, #183 ) ;
#65 = FACE_OUTER_BOUND ( 'NONE', #92, .T. ) ;
#66 = CARTESIAN_POINT ( 'NONE',  ( 0.0000000000000000000, 0.0000000000000000000, 0.0000000000000000000 ) ) ;
#67 = VECTOR ( 'NONE', #99, 1000.000000000000000 ) ;
#68 = CARTESIAN_POINT ( 'NONE',  ( 12.49999999999999800, -12.49999999999999600, -4.750000000000000000 ) ) ;
#69 = DIRECTION ( 'NONE',  ( 0.0000000000000000000, 1.000000000000000000, 0.0000000000000000000 ) ) ;
#70 = APPROVAL_PERSON_ORGANIZATION ( #233, #184, #178 ) ;
#71 = AXIS2_PLACEMENT_3D ( 'NONE', #85, #119, #51 ) ;
#72 = COORDINATED_UNIVERSAL_TIME_OFFSET ( 5, 0, .BEHIND. ) ;
#73 = VECTOR ( 'NONE', #24, 1000.000000000000000 ) ;
#74 = PERSON_AND_ORGANIZATION ( #26, #18 ) ;
#75 = ORIENTED_EDGE ( 'NONE', *, *, #139, .F. ) ;
#76 = ORIENTED_EDGE ( 'NONE', *, *, #60, .T. ) ;
#77 = ORIENTED_EDGE ( 'NONE', *, *, #124, .F. ) ;
#78 = PLANE ( 'NONE',  #154 ) ;
#79 = DATE_AND_TIME ( #221, #86 ) ;
#80 = DIRECTION ( 'NONE',  ( 0.0000000000000000000, -0.0000000000000000000, 1.000000000000000000 ) ) ;
#81 = CALENDAR_DATE ( 2017, 30, 10 ) ;
#82 = DIRECTION ( 'NONE',  ( 1.000000000000000000, 0.0000000000000000000, 0.0000000000000000000 ) ) ;
#83 = ORIENTED_EDGE ( 'NONE', *, *, #60, .F. ) ;
#84 = DIRECTION ( 'NONE',  ( 1.387778780781445700E-016, -1.000000000000000000, 0.0000000000000000000 ) ) ;
#85 = CARTESIAN_POINT ( 'NONE',  ( 12.49999999999999800, -12.49999999999999600, 4.750000000000000000 ) ) ;
#86 = LOCAL_TIME ( 9, 9, 48.00000000000000000, #72 ) ;
#87 = PERSON_AND_ORGANIZATION ( #26, #18 ) ;
#88 = ADVANCED_FACE ( 'NONE', ( #21 ), #78, .F. ) ;
#89 = LINE ( 'NONE', #225, #67 ) ;
#90 = ADVANCED_FACE ( 'NONE', ( #207 ), #111, .F. ) ;
#91 = EDGE_CURVE ( 'NONE', #209, #215, #89, .T. ) ;
#92 = EDGE_LOOP ( 'NONE', ( #77, #212, #143, #193 ) ) ;
#93 = APPROVAL_STATUS ( 'not_yet_approved' ) ;
#94 = APPROVAL ( #232, 'UNSPECIFIED' ) ;
#95 = FACE_OUTER_BOUND ( 'NONE', #172, .T. ) ;
#96 = DIRECTION ( 'NONE',  ( -0.0000000000000000000, -0.0000000000000000000, -1.000000000000000000 ) ) ;
#97 = CARTESIAN_POINT ( 'NONE',  ( 0.0000000000000000000, 0.0000000000000000000, -4.750000000000000000 ) ) ;
#98 = LINE ( 'NONE', #161, #177 ) ;
#99 = DIRECTION ( 'NONE',  ( -1.000000000000000000, -1.387778780781445700E-016, 0.0000000000000000000 ) ) ;
#100 = MANIFOLD_SOLID_BREP ( 'Boss-Extrude1', #36 ) ;
#101 = DIRECTION ( 'NONE',  ( 1.000000000000000000, 1.387778780781445700E-016, 0.0000000000000000000 ) ) ;
#102 = CARTESIAN_POINT ( 'NONE',  ( 12.49999999999999800, -12.49999999999999600, 4.750000000000000000 ) ) ;
#103 = ORIENTED_EDGE ( 'NONE', *, *, #124, .T. ) ;
#104 = PERSON_AND_ORGANIZATION ( #26, #18 ) ;
#105 = LINE ( 'NONE', #222, #73 ) ;
#106 = VERTEX_POINT ( 'NONE', #203 ) ;
#107 = CC_DESIGN_DATE_AND_TIME_ASSIGNMENT ( #145, #59, ( #115 ) ) ;
#108 = COORDINATED_UNIVERSAL_TIME_OFFSET ( 5, 0, .BEHIND. ) ;
#109 = FACE_OUTER_BOUND ( 'NONE', #43, .T. ) ;
#110 = LINE ( 'NONE', #147, #171 ) ;
#111 = PLANE ( 'NONE',  #234 ) ;
#112 = PERSON_AND_ORGANIZATION ( #26, #18 ) ;
#113 = ORIENTED_EDGE ( 'NONE', *, *, #91, .T. ) ;
#114 =( NAMED_UNIT ( * ) PLANE_ANGLE_UNIT ( ) SI_UNIT ( $, .RADIAN. ) );
#115 = PRODUCT_DEFINITION ( 'UNKNOWN', '', #162, #192 ) ;
#116 = PLANE ( 'NONE',  #71 ) ;
#117 = PERSON_AND_ORGANIZATION_ROLE ( 'design_owner' ) ;
#118 = ORIENTED_EDGE ( 'NONE', *, *, #134, .T. ) ;
#119 = DIRECTION ( 'NONE',  ( -1.000000000000000000, 0.0000000000000000000, 0.0000000000000000000 ) ) ;
#120 = APPROVAL_DATE_TIME ( #176, #94 ) ;
#121 = ORIENTED_EDGE ( 'NONE', *, *, #42, .F. ) ;
#122 = ORIENTED_EDGE ( 'NONE', *, *, #23, .F. ) ;
#123 = PRODUCT_DEFINITION_SHAPE ( 'NONE', 'NONE',  #115 ) ;
#124 = EDGE_CURVE ( 'NONE', #215, #237, #132, .T. ) ;
#125 = LINE ( 'NONE', #204, #62 ) ;
#126 = PERSON_AND_ORGANIZATION_ROLE ( 'design_supplier' ) ;
#127 = DATE_TIME_ROLE ( 'classification_date' ) ;
#128 = CARTESIAN_POINT ( 'NONE',  ( 12.49999999999999800, -12.49999999999999600, 4.750000000000000000 ) ) ;
#129 = EDGE_CURVE ( 'NONE', #106, #237, #110, .T. ) ;
#130 = DIRECTION ( 'NONE',  ( -0.0000000000000000000, -0.0000000000000000000, -1.000000000000000000 ) ) ;
#131 = APPLICATION_CONTEXT ( 'configuration controlled 3d designs of mechanical parts and assemblies' ) ;
#132 = LINE ( 'NONE', #25, #138 ) ;
#133 = DIRECTION ( 'NONE',  ( 1.000000000000000000, 0.0000000000000000000, 0.0000000000000000000 ) ) ;
#134 = EDGE_CURVE ( 'NONE', #32, #209, #41, .T. ) ;
#135 =( NAMED_UNIT ( * ) SI_UNIT ( $, .STERADIAN. ) SOLID_ANGLE_UNIT ( ) );
#136 = CARTESIAN_POINT ( 'NONE',  ( 12.49999999999999800, -12.49999999999999600, -4.750000000000000000 ) ) ;
#137 = ORIENTED_EDGE ( 'NONE', *, *, #214, .T. ) ;
#138 = VECTOR ( 'NONE', #206, 1000.000000000000000 ) ;
#139 = EDGE_CURVE ( 'NONE', #4, #46, #202, .T. ) ;
#140 = VECTOR ( 'NONE', #185, 1000.000000000000000 ) ;
#141 = SECURITY_CLASSIFICATION_LEVEL ( 'unclassified' ) ;
#142 = CARTESIAN_POINT ( 'NONE',  ( 12.49999999999999800, 12.50000000000000400, 4.750000000000000000 ) ) ;
#143 = ORIENTED_EDGE ( 'NONE', *, *, #134, .F. ) ;
#144 = DIRECTION ( 'NONE',  ( -0.0000000000000000000, -1.000000000000000000, -0.0000000000000000000 ) ) ;
#145 = DATE_AND_TIME ( #201, #38 ) ;
#146 = VECTOR ( 'NONE', #144, 1000.000000000000000 ) ;
#147 = CARTESIAN_POINT ( 'NONE',  ( -12.50000000000000200, -12.50000000000000000, 4.750000000000000000 ) ) ;
#148 = CARTESIAN_POINT ( 'NONE',  ( -12.50000000000000200, -12.50000000000000000, 4.750000000000000000 ) ) ;
#149 = DIRECTION ( 'NONE',  ( -0.0000000000000000000, -0.0000000000000000000, -1.000000000000000000 ) ) ;
#150 = ORIENTED_EDGE ( 'NONE', *, *, #27, .F. ) ;
#151 = CARTESIAN_POINT ( 'NONE',  ( -12.50000000000000200, 12.50000000000000000, -4.750000000000000000 ) ) ;
#152 = VECTOR ( 'NONE', #12, 1000.000000000000000 ) ;
#153 = ADVANCED_FACE ( 'NONE', ( #95 ), #210, .T. ) ;
#154 = AXIS2_PLACEMENT_3D ( 'NONE', #44, #220, #5 ) ;
#155 = EDGE_LOOP ( 'NONE', ( #103, #179, #158, #76 ) ) ;
#156 = ADVANCED_FACE ( 'NONE', ( #109 ), #116, .F. ) ;
#157 = APPLICATION_PROTOCOL_DEFINITION ( 'international standard', 'config_control_design', 1994, #28 ) ;
#158 = ORIENTED_EDGE ( 'NONE', *, *, #37, .F. ) ;
#159 = PERSON_AND_ORGANIZATION ( #26, #18 ) ;
#160 = EDGE_LOOP ( 'NONE', ( #113, #83, #150, #58 ) ) ;
#161 = CARTESIAN_POINT ( 'NONE',  ( -12.50000000000000200, 12.50000000000000000, 4.750000000000000000 ) ) ;
#162 = PRODUCT_DEFINITION_FORMATION_WITH_SPECIFIED_SOURCE ( 'ANY', '', #11, .NOT_KNOWN. ) ;
#163 = LOCAL_TIME ( 9, 9, 48.00000000000000000, #9 ) ;
#164 = APPLICATION_PROTOCOL_DEFINITION ( 'international standard', 'config_control_design', 1994, #131 ) ;
#165 = AXIS2_PLACEMENT_3D ( 'NONE', #148, #133, #224 ) ;
#166 = CARTESIAN_POINT ( 'NONE',  ( 12.49999999999999800, 12.50000000000000400, 4.750000000000000000 ) ) ;
#167 = DIRECTION ( 'NONE',  ( 0.0000000000000000000, 0.0000000000000000000, 1.000000000000000000 ) ) ;
#168 = UNCERTAINTY_MEASURE_WITH_UNIT (LENGTH_MEASURE( 1.000000000000000100E-005 ), #53, 'distance_accuracy_value', 'NONE');
#169 = APPROVAL ( #39, 'UNSPECIFIED' ) ;
#170 = DATE_AND_TIME ( #205, #34 ) ;
#171 = VECTOR ( 'NONE', #149, 1000.000000000000000 ) ;
#172 = EDGE_LOOP ( 'NONE', ( #14, #137, #197, #10 ) ) ;
#173 = CC_DESIGN_PERSON_AND_ORGANIZATION_ASSIGNMENT ( #104, #217, ( #162 ) ) ;
#174 = APPROVAL_PERSON_ORGANIZATION ( #159, #94, #31 ) ;
#175 = APPROVAL_ROLE ( '' ) ;
#176 = DATE_AND_TIME ( #81, #194 ) ;
#177 = VECTOR ( 'NONE', #96, 1000.000000000000000 ) ;
#178 = APPROVAL_ROLE ( '' ) ;
#179 = ORIENTED_EDGE ( 'NONE', *, *, #129, .F. ) ;
#180 = CARTESIAN_POINT ( 'NONE',  ( -12.50000000000000200, -12.50000000000000000, 4.750000000000000000 ) ) ;
#181 = APPROVAL_DATE_TIME ( #55, #169 ) ;
#182 = DIRECTION ( 'NONE',  ( 1.000000000000000000, 0.0000000000000000000, -0.0000000000000000000 ) ) ;
#183 = VECTOR ( 'NONE', #130, 1000.000000000000000 ) ;
#184 = APPROVAL ( #93, 'UNSPECIFIED' ) ;
#185 = DIRECTION ( 'NONE',  ( 1.000000000000000000, 1.387778780781445700E-016, -0.0000000000000000000 ) ) ;
#186 = CARTESIAN_POINT ( 'NONE',  ( 0.0000000000000000000, 0.0000000000000000000, 4.750000000000000000 ) ) ;
#187 = ORIENTED_EDGE ( 'NONE', *, *, #129, .T. ) ;
#188 = CC_DESIGN_PERSON_AND_ORGANIZATION_ASSIGNMENT ( #74, #126, ( #162 ) ) ;
#189 = VECTOR ( 'NONE', #6, 1000.000000000000000 ) ;
#190 = ADVANCED_FACE ( 'NONE', ( #65 ), #49, .F. ) ;
#191 = CC_DESIGN_PERSON_AND_ORGANIZATION_ASSIGNMENT ( #227, #117, ( #11 ) ) ;
#192 = DESIGN_CONTEXT ( 'detailed design', #28, 'design' ) ;
#193 = ORIENTED_EDGE ( 'NONE', *, *, #235, .F. ) ;
#194 = LOCAL_TIME ( 9, 9, 48.00000000000000000, #16 ) ;
#195 = LINE ( 'NONE', #136, #140 ) ;
#196 = CC_DESIGN_APPROVAL ( #184, ( #216 ) ) ;
#197 = ORIENTED_EDGE ( 'NONE', *, *, #139, .T. ) ;
#198 = CC_DESIGN_DATE_AND_TIME_ASSIGNMENT ( #170, #127, ( #216 ) ) ;
#199 = ADVANCED_BREP_SHAPE_REPRESENTATION ( 'Web Model 64402MX_43005', ( #100, #8 ), #57 ) ;
#200 = AXIS2_PLACEMENT_3D ( 'NONE', #186, #230, #13 ) ;
#201 = CALENDAR_DATE ( 2017, 30, 10 ) ;
#202 = LINE ( 'NONE', #102, #152 ) ;
#203 = CARTESIAN_POINT ( 'NONE',  ( -12.50000000000000200, -12.50000000000000000, 4.750000000000000000 ) ) ;
#204 = CARTESIAN_POINT ( 'NONE',  ( 12.49999999999999800, -12.49999999999999600, 4.750000000000000000 ) ) ;
#205 = CALENDAR_DATE ( 2017, 30, 10 ) ;
#206 = DIRECTION ( 'NONE',  ( -0.0000000000000000000, -1.000000000000000000, -0.0000000000000000000 ) ) ;
#207 = FACE_OUTER_BOUND ( 'NONE', #160, .T. ) ;
#208 = CC_DESIGN_PERSON_AND_ORGANIZATION_ASSIGNMENT ( #112, #54, ( #115 ) ) ;
#209 = VERTEX_POINT ( 'NONE', #15 ) ;
#210 = PLANE ( 'NONE',  #200 ) ;
#211 = CC_DESIGN_APPROVAL ( #94, ( #115 ) ) ;
#212 = ORIENTED_EDGE ( 'NONE', *, *, #91, .F. ) ;
#213 = ADVANCED_FACE ( 'NONE', ( #219 ), #50, .F. ) ;
#214 = EDGE_CURVE ( 'NONE', #106, #4, #125, .T. ) ;
#215 = VERTEX_POINT ( 'NONE', #151 ) ;
#216 = SECURITY_CLASSIFICATION ( '', '', #141 ) ;
#217 = PERSON_AND_ORGANIZATION_ROLE ( 'creator' ) ;
#218 = CALENDAR_DATE ( 2017, 30, 10 ) ;
#219 = FACE_OUTER_BOUND ( 'NONE', #155, .T. ) ;
#220 = DIRECTION ( 'NONE',  ( -1.387778780781445700E-016, 1.000000000000000000, 0.0000000000000000000 ) ) ;
#221 = CALENDAR_DATE ( 2017, 30, 10 ) ;
#222 = CARTESIAN_POINT ( 'NONE',  ( 12.49999999999999800, 12.50000000000000400, 4.750000000000000000 ) ) ;
#223 = CARTESIAN_POINT ( 'NONE',  ( 12.49999999999999800, -12.49999999999999600, -4.750000000000000000 ) ) ;
#224 = DIRECTION ( 'NONE',  ( 0.0000000000000000000, 0.0000000000000000000, -1.000000000000000000 ) ) ;
#225 = CARTESIAN_POINT ( 'NONE',  ( 12.49999999999999800, 12.50000000000000400, -4.750000000000000000 ) ) ;
#226 = CC_DESIGN_SECURITY_CLASSIFICATION ( #216, ( #162 ) ) ;
#227 = PERSON_AND_ORGANIZATION ( #26, #18 ) ;
#228 = ORIENTED_EDGE ( 'NONE', *, *, #235, .T. ) ;
#229 = MECHANICAL_CONTEXT ( 'NONE', #131, 'mechanical' ) ;
#230 = DIRECTION ( 'NONE',  ( 0.0000000000000000000, -0.0000000000000000000, 1.000000000000000000 ) ) ;
#231 = CARTESIAN_POINT ( 'NONE',  ( -12.50000000000000200, -12.50000000000000000, -4.750000000000000000 ) ) ;
#232 = APPROVAL_STATUS ( 'not_yet_approved' ) ;
#233 = PERSON_AND_ORGANIZATION ( #26, #18 ) ;
#234 = AXIS2_PLACEMENT_3D ( 'NONE', #166, #84, #101 ) ;
#235 = EDGE_CURVE ( 'NONE', #237, #32, #195, .T. ) ;
#236 = LINE ( 'NONE', #47, #189 ) ;
#237 = VERTEX_POINT ( 'NONE', #231 ) ;
ENDSEC;
END-ISO-10303-21;
