ISO-10303-21;
HEADER;
FILE_DESCRIPTION (( 'STEP AP203' ),
    '1' );
FILE_NAME ('Web Model 34428_13303.step',
    '2020-11-03T22:10:27',
    ( '' ),
    ( '' ),
    'SwSTEP 2.0',
    'SolidWorks 2018',
    '' );
FILE_SCHEMA (( 'CONFIG_CONTROL_DESIGN' ));
ENDSEC;

DATA;
#1 = LOCAL_TIME ( 17, 10, 27.00000000000000000, #106 ) ;
#2 = MECHANICAL_CONTEXT ( 'NONE', #32, 'mechanical' ) ;
#3 = CARTESIAN_POINT ( 'NONE',  ( 0.0000000000000000000, 0.0000000000000000000, 0.0000000000000000000 ) ) ;
#4 = APPROVAL_STATUS ( 'not_yet_approved' ) ;
#5 = PERSON_AND_ORGANIZATION_ROLE ( 'classification_officer' ) ;
#6 = CALENDAR_DATE ( 2020, 3, 11 ) ;
#7 = ORIENTED_EDGE ( 'NONE', *, *, #117, .F. ) ;
#8 = CIRCLE ( 'NONE', #60, 25.00000000000000000 ) ;
#9 = EDGE_CURVE ( 'NONE', #172, #30, #8, .T. ) ;
#10 = PRODUCT ( 'Web Model 34428_13303', 'Web Model 34428_13303', '', ( #2 ) ) ;
#11 = CARTESIAN_POINT ( 'NONE',  ( -25.00000000000000000, 0.0000000000000000000, 2.000000000000000000 ) ) ;
#12 = CALENDAR_DATE ( 2020, 3, 11 ) ;
#13 = DIRECTION ( 'NONE',  ( -0.0000000000000000000, -0.0000000000000000000, -1.000000000000000000 ) ) ;
#14 = PERSON_AND_ORGANIZATION_ROLE ( 'creator' ) ;
#15 = DIRECTION ( 'NONE',  ( 1.000000000000000000, 0.0000000000000000000, 0.0000000000000000000 ) ) ;
#16 = DIRECTION ( 'NONE',  ( 0.0000000000000000000, 0.0000000000000000000, 1.000000000000000000 ) ) ;
#17 = SHAPE_DEFINITION_REPRESENTATION ( #150, #157 ) ;
#18 = APPROVAL_ROLE ( '' ) ;
#19 = DIRECTION ( 'NONE',  ( 1.000000000000000000, 0.0000000000000000000, -0.0000000000000000000 ) ) ;
#20 = CIRCLE ( 'NONE', #161, 25.00000000000000000 ) ;
#21 = PERSON_AND_ORGANIZATION ( #153, #156 ) ;
#22 = ORIENTED_EDGE ( 'NONE', *, *, #9, .T. ) ;
#23 = EDGE_CURVE ( 'NONE', #30, #172, #26, .T. ) ;
#24 = FACE_OUTER_BOUND ( 'NONE', #96, .T. ) ;
#25 = CALENDAR_DATE ( 2020, 3, 11 ) ;
#26 = CIRCLE ( 'NONE', #40, 25.00000000000000000 ) ;
#27 =( NAMED_UNIT ( * ) SI_UNIT ( $, .STERADIAN. ) SOLID_ANGLE_UNIT ( ) );
#28 = AXIS2_PLACEMENT_3D ( 'NONE', #81, #31, #19 ) ;
#29 = PERSON_AND_ORGANIZATION ( #153, #156 ) ;
#30 = VERTEX_POINT ( 'NONE', #11 ) ;
#31 = DIRECTION ( 'NONE',  ( 0.0000000000000000000, 0.0000000000000000000, 1.000000000000000000 ) ) ;
#32 = APPLICATION_CONTEXT ( 'configuration controlled 3d designs of mechanical parts and assemblies' ) ;
#33 = DATE_TIME_ROLE ( 'creation_date' ) ;
#34 = DIRECTION ( 'NONE',  ( 0.0000000000000000000, 0.0000000000000000000, 1.000000000000000000 ) ) ;
#35 = APPROVAL_DATE_TIME ( #135, #109 ) ;
#36 = CC_DESIGN_SECURITY_CLASSIFICATION ( #77, ( #111 ) ) ;
#37 = VERTEX_POINT ( 'NONE', #94 ) ;
#38 = DATE_AND_TIME ( #6, #62 ) ;
#39 = CARTESIAN_POINT ( 'NONE',  ( 0.0000000000000000000, 0.0000000000000000000, 2.000000000000000000 ) ) ;
#40 = AXIS2_PLACEMENT_3D ( 'NONE', #39, #137, #79 ) ;
#41 = COORDINATED_UNIVERSAL_TIME_OFFSET ( 5, 0, .BEHIND. ) ;
#42 = VERTEX_POINT ( 'NONE', #139 ) ;
#43 = CARTESIAN_POINT ( 'NONE',  ( 0.0000000000000000000, 0.0000000000000000000, 0.0000000000000000000 ) ) ;
#44 = PLANE ( 'NONE',  #134 ) ;
#45 =( LENGTH_UNIT ( ) NAMED_UNIT ( * ) SI_UNIT ( .MILLI., .METRE. ) );
#46 = DATE_AND_TIME ( #25, #90 ) ;
#47 = DIRECTION ( 'NONE',  ( -0.0000000000000000000, -0.0000000000000000000, -1.000000000000000000 ) ) ;
#48 = ORIENTED_EDGE ( 'NONE', *, *, #147, .F. ) ;
#49 = LOCAL_TIME ( 17, 10, 27.00000000000000000, #64 ) ;
#50 = FACE_OUTER_BOUND ( 'NONE', #115, .T. ) ;
#51 = DIRECTION ( 'NONE',  ( 0.0000000000000000000, 0.0000000000000000000, 1.000000000000000000 ) ) ;
#52 = VECTOR ( 'NONE', #69, 1000.000000000000000 ) ;
#53 = DIRECTION ( 'NONE',  ( -1.000000000000000000, 0.0000000000000000000, 0.0000000000000000000 ) ) ;
#54 =( NAMED_UNIT ( * ) PLANE_ANGLE_UNIT ( ) SI_UNIT ( $, .RADIAN. ) );
#55 = DIRECTION ( 'NONE',  ( 1.000000000000000000, 0.0000000000000000000, 0.0000000000000000000 ) ) ;
#56 = MANIFOLD_SOLID_BREP ( 'Boss-Extrude1', #138 ) ;
#57 = PLANE ( 'NONE',  #28 ) ;
#58 = CARTESIAN_POINT ( 'NONE',  ( 0.0000000000000000000, 0.0000000000000000000, 2.000000000000000000 ) ) ;
#59 = PERSON_AND_ORGANIZATION ( #153, #156 ) ;
#60 = AXIS2_PLACEMENT_3D ( 'NONE', #108, #51, #151 ) ;
#61 = ORIENTED_EDGE ( 'NONE', *, *, #147, .T. ) ;
#62 = LOCAL_TIME ( 17, 10, 27.00000000000000000, #41 ) ;
#63 = CC_DESIGN_PERSON_AND_ORGANIZATION_ASSIGNMENT ( #145, #127, ( #10 ) ) ;
#64 = COORDINATED_UNIVERSAL_TIME_OFFSET ( 5, 0, .BEHIND. ) ;
#65 = DESIGN_CONTEXT ( 'detailed design', #167, 'design' ) ;
#66 = CC_DESIGN_APPROVAL ( #168, ( #111 ) ) ;
#67 = AXIS2_PLACEMENT_3D ( 'NONE', #110, #125, #84 ) ;
#68 = ORIENTED_EDGE ( 'NONE', *, *, #23, .F. ) ;
#69 = DIRECTION ( 'NONE',  ( -0.0000000000000000000, -0.0000000000000000000, -1.000000000000000000 ) ) ;
#70 = DIRECTION ( 'NONE',  ( 0.0000000000000000000, 0.0000000000000000000, 1.000000000000000000 ) ) ;
#71 = PERSON_AND_ORGANIZATION_ROLE ( 'design_supplier' ) ;
#72 = COORDINATED_UNIVERSAL_TIME_OFFSET ( 5, 0, .BEHIND. ) ;
#73 = ADVANCED_FACE ( 'NONE', ( #149 ), #130, .T. ) ;
#74 = APPROVAL_ROLE ( '' ) ;
#75 = PRODUCT_DEFINITION ( 'UNKNOWN', '', #111, #65 ) ;
#76 = CALENDAR_DATE ( 2020, 3, 11 ) ;
#77 = SECURITY_CLASSIFICATION ( '', '', #169 ) ;
#78 = COORDINATED_UNIVERSAL_TIME_OFFSET ( 5, 0, .BEHIND. ) ;
#79 = DIRECTION ( 'NONE',  ( 1.000000000000000000, 0.0000000000000000000, 0.0000000000000000000 ) ) ;
#80 = ORIENTED_EDGE ( 'NONE', *, *, #86, .T. ) ;
#81 = CARTESIAN_POINT ( 'NONE',  ( 0.0000000000000000000, 0.0000000000000000000, 0.0000000000000000000 ) ) ;
#82 = CYLINDRICAL_SURFACE ( 'NONE', #104, 25.00000000000000000 ) ;
#83 = APPROVAL ( #4, 'UNSPECIFIED' ) ;
#84 = DIRECTION ( 'NONE',  ( 1.000000000000000000, 0.0000000000000000000, 0.0000000000000000000 ) ) ;
#85 = PERSON_AND_ORGANIZATION ( #153, #156 ) ;
#86 = EDGE_CURVE ( 'NONE', #37, #42, #87, .T. ) ;
#87 = CIRCLE ( 'NONE', #67, 25.00000000000000000 ) ;
#88 = UNCERTAINTY_MEASURE_WITH_UNIT (LENGTH_MEASURE( 1.000000000000000082E-05 ), #45, 'distance_accuracy_value', 'NONE');
#89 = PRODUCT_RELATED_PRODUCT_CATEGORY ( 'detail', '', ( #10 ) ) ;
#90 = LOCAL_TIME ( 17, 10, 27.00000000000000000, #78 ) ;
#91 = VECTOR ( 'NONE', #47, 1000.000000000000000 ) ;
#92 = CC_DESIGN_APPROVAL ( #83, ( #75 ) ) ;
#93 = PERSON_AND_ORGANIZATION ( #153, #156 ) ;
#94 = CARTESIAN_POINT ( 'NONE',  ( -25.00000000000000000, 0.0000000000000000000, 0.0000000000000000000 ) ) ;
#95 = CARTESIAN_POINT ( 'NONE',  ( 25.00000000000000000, 3.061616997868383043E-15, 2.000000000000000000 ) ) ;
#96 = EDGE_LOOP ( 'NONE', ( #48, #68, #131, #80 ) ) ;
#97 = ADVANCED_FACE ( 'NONE', ( #24 ), #82, .T. ) ;
#98 = DIRECTION ( 'NONE',  ( -0.0000000000000000000, -0.0000000000000000000, -1.000000000000000000 ) ) ;
#99 = DATE_TIME_ROLE ( 'classification_date' ) ;
#100 = PERSON_AND_ORGANIZATION ( #153, #156 ) ;
#101 = ORIENTED_EDGE ( 'NONE', *, *, #152, .T. ) ;
#102 = CC_DESIGN_PERSON_AND_ORGANIZATION_ASSIGNMENT ( #29, #71, ( #111 ) ) ;
#103 = DATE_AND_TIME ( #171, #1 ) ;
#104 = AXIS2_PLACEMENT_3D ( 'NONE', #165, #98, #53 ) ;
#105 = CC_DESIGN_PERSON_AND_ORGANIZATION_ASSIGNMENT ( #21, #112, ( #75 ) ) ;
#106 = COORDINATED_UNIVERSAL_TIME_OFFSET ( 5, 0, .BEHIND. ) ;
#107 = CC_DESIGN_PERSON_AND_ORGANIZATION_ASSIGNMENT ( #85, #14, ( #111 ) ) ;
#108 = CARTESIAN_POINT ( 'NONE',  ( 0.0000000000000000000, 0.0000000000000000000, 2.000000000000000000 ) ) ;
#109 = APPROVAL ( #129, 'UNSPECIFIED' ) ;
#110 = CARTESIAN_POINT ( 'NONE',  ( 0.0000000000000000000, 0.0000000000000000000, 0.0000000000000000000 ) ) ;
#111 = PRODUCT_DEFINITION_FORMATION_WITH_SPECIFIED_SOURCE ( 'ANY', '', #10, .NOT_KNOWN. ) ;
#112 = PERSON_AND_ORGANIZATION_ROLE ( 'creator' ) ;
#113 = CC_DESIGN_DATE_AND_TIME_ASSIGNMENT ( #103, #99, ( #77 ) ) ;
#114 = APPROVAL_PERSON_ORGANIZATION ( #93, #83, #18 ) ;
#115 = EDGE_LOOP ( 'NONE', ( #163, #158 ) ) ;
#116 = AXIS2_PLACEMENT_3D ( 'NONE', #164, #13, #121 ) ;
#117 = EDGE_CURVE ( 'NONE', #30, #37, #141, .T. ) ;
#118 = APPROVAL_PERSON_ORGANIZATION ( #175, #168, #143 ) ;
#119 = ORIENTED_EDGE ( 'NONE', *, *, #23, .T. ) ;
#120 = FACE_OUTER_BOUND ( 'NONE', #162, .T. ) ;
#121 = DIRECTION ( 'NONE',  ( -1.000000000000000000, 0.0000000000000000000, 0.0000000000000000000 ) ) ;
#122 = CC_DESIGN_APPROVAL ( #109, ( #77 ) ) ;
#123 = APPROVAL_DATE_TIME ( #46, #168 ) ;
#124 = AXIS2_PLACEMENT_3D ( 'NONE', #3, #16, #55 ) ;
#125 = DIRECTION ( 'NONE',  ( 0.0000000000000000000, 0.0000000000000000000, 1.000000000000000000 ) ) ;
#126 = ORIENTED_EDGE ( 'NONE', *, *, #9, .F. ) ;
#127 = PERSON_AND_ORGANIZATION_ROLE ( 'design_owner' ) ;
#128 = APPROVAL_STATUS ( 'not_yet_approved' ) ;
#129 = APPROVAL_STATUS ( 'not_yet_approved' ) ;
#130 = CYLINDRICAL_SURFACE ( 'NONE', #116, 25.00000000000000000 ) ;
#131 = ORIENTED_EDGE ( 'NONE', *, *, #117, .T. ) ;
#132 =( GEOMETRIC_REPRESENTATION_CONTEXT ( 3 ) GLOBAL_UNCERTAINTY_ASSIGNED_CONTEXT ( ( #88 ) ) GLOBAL_UNIT_ASSIGNED_CONTEXT ( ( #45, #54, #27 ) ) REPRESENTATION_CONTEXT ( 'NONE', 'WORKASPACE' ) );
#133 = APPROVAL_DATE_TIME ( #144, #83 ) ;
#134 = AXIS2_PLACEMENT_3D ( 'NONE', #58, #34, #140 ) ;
#135 = DATE_AND_TIME ( #12, #49 ) ;
#136 = ADVANCED_FACE ( 'NONE', ( #50 ), #57, .F. ) ;
#137 = DIRECTION ( 'NONE',  ( 0.0000000000000000000, 0.0000000000000000000, 1.000000000000000000 ) ) ;
#138 = CLOSED_SHELL ( 'NONE', ( #73, #97, #174, #136 ) ) ;
#139 = CARTESIAN_POINT ( 'NONE',  ( 25.00000000000000000, 3.061616997868383043E-15, 0.0000000000000000000 ) ) ;
#140 = DIRECTION ( 'NONE',  ( 1.000000000000000000, 0.0000000000000000000, -0.0000000000000000000 ) ) ;
#141 = LINE ( 'NONE', #154, #52 ) ;
#142 = APPLICATION_PROTOCOL_DEFINITION ( 'international standard', 'config_control_design', 1994, #32 ) ;
#143 = APPROVAL_ROLE ( '' ) ;
#144 = DATE_AND_TIME ( #76, #148 ) ;
#145 = PERSON_AND_ORGANIZATION ( #153, #156 ) ;
#146 = EDGE_LOOP ( 'NONE', ( #126, #61, #101, #7 ) ) ;
#147 = EDGE_CURVE ( 'NONE', #172, #42, #170, .T. ) ;
#148 = LOCAL_TIME ( 17, 10, 27.00000000000000000, #72 ) ;
#149 = FACE_OUTER_BOUND ( 'NONE', #146, .T. ) ;
#150 = PRODUCT_DEFINITION_SHAPE ( 'NONE', 'NONE',  #75 ) ;
#151 = DIRECTION ( 'NONE',  ( 1.000000000000000000, 0.0000000000000000000, 0.0000000000000000000 ) ) ;
#152 = EDGE_CURVE ( 'NONE', #42, #37, #20, .T. ) ;
#153 = PERSON ( 'UNSPECIFIED', 'UNSPECIFIED', 'UNSPECIFIED', ('UNSPECIFIED'), ('UNSPECIFIED'), ('UNSPECIFIED') ) ;
#154 = CARTESIAN_POINT ( 'NONE',  ( -25.00000000000000000, 0.0000000000000000000, 2.000000000000000000 ) ) ;
#155 = APPLICATION_PROTOCOL_DEFINITION ( 'international standard', 'config_control_design', 1994, #167 ) ;
#156 = ORGANIZATION ( 'UNSPECIFIED', 'UNSPECIFIED', '' ) ;
#157 = ADVANCED_BREP_SHAPE_REPRESENTATION ( 'Web Model 34428_13303', ( #56, #124 ), #132 ) ;
#158 = ORIENTED_EDGE ( 'NONE', *, *, #152, .F. ) ;
#159 = CC_DESIGN_DATE_AND_TIME_ASSIGNMENT ( #38, #33, ( #75 ) ) ;
#160 = APPROVAL_PERSON_ORGANIZATION ( #100, #109, #74 ) ;
#161 = AXIS2_PLACEMENT_3D ( 'NONE', #43, #70, #15 ) ;
#162 = EDGE_LOOP ( 'NONE', ( #119, #22 ) ) ;
#163 = ORIENTED_EDGE ( 'NONE', *, *, #86, .F. ) ;
#164 = CARTESIAN_POINT ( 'NONE',  ( 0.0000000000000000000, 0.0000000000000000000, 2.000000000000000000 ) ) ;
#165 = CARTESIAN_POINT ( 'NONE',  ( 0.0000000000000000000, 0.0000000000000000000, 2.000000000000000000 ) ) ;
#166 = CARTESIAN_POINT ( 'NONE',  ( 25.00000000000000000, 3.061616997868383043E-15, 2.000000000000000000 ) ) ;
#167 = APPLICATION_CONTEXT ( 'configuration controlled 3d designs of mechanical parts and assemblies' ) ;
#168 = APPROVAL ( #128, 'UNSPECIFIED' ) ;
#169 = SECURITY_CLASSIFICATION_LEVEL ( 'unclassified' ) ;
#170 = LINE ( 'NONE', #95, #91 ) ;
#171 = CALENDAR_DATE ( 2020, 3, 11 ) ;
#172 = VERTEX_POINT ( 'NONE', #166 ) ;
#173 = CC_DESIGN_PERSON_AND_ORGANIZATION_ASSIGNMENT ( #59, #5, ( #77 ) ) ;
#174 = ADVANCED_FACE ( 'NONE', ( #120 ), #44, .T. ) ;
#175 = PERSON_AND_ORGANIZATION ( #153, #156 ) ;
ENDSEC;
END-ISO-10303-21;
