ISO-10303-21;
HEADER;
FILE_DESCRIPTION (( 'STEP AP203' ),
    '1' );
FILE_NAME ('Web Model 65874.STEP',
    '2017-01-31T19:29:37',
    ( '' ),
    ( '' ),
    'SwSTEP 2.0',
    'SolidWorks 2016',
    '' );
FILE_SCHEMA (( 'CONFIG_CONTROL_DESIGN' ));
ENDSEC;

DATA;
#1 = EDGE_CURVE ( 'NONE', #110, #138, #146, .T. ) ;
#2 = DATE_AND_TIME ( #87, #133 ) ;
#3 = PERSON_AND_ORGANIZATION ( #42, #43 ) ;
#4 = LOCAL_TIME ( 14, 29, 37.00000000000000000, #150 ) ;
#5 = PERSON_AND_ORGANIZATION_ROLE ( 'classification_officer' ) ;
#6 = APPROVAL_ROLE ( '' ) ;
#7 = CARTESIAN_POINT ( 'NONE',  ( 10.00000000000000200, 1.224646799147353500E-015, 2.000000000000000000 ) ) ;
#8 = CARTESIAN_POINT ( 'NONE',  ( -10.00000000000000200, 0.0000000000000000000, 2.000000000000000000 ) ) ;
#9 = DIRECTION ( 'NONE',  ( -0.0000000000000000000, -0.0000000000000000000, -1.000000000000000000 ) ) ;
#10 = EDGE_LOOP ( 'NONE', ( #90, #44 ) ) ;
#11 = AXIS2_PLACEMENT_3D ( 'NONE', #108, #103, #35 ) ;
#12 = APPROVAL ( #96, 'UNSPECIFIED' ) ;
#13 = DIRECTION ( 'NONE',  ( 0.0000000000000000000, 0.0000000000000000000, 1.000000000000000000 ) ) ;
#14 = APPLICATION_PROTOCOL_DEFINITION ( 'international standard', 'config_control_design', 1994, #68 ) ;
#15 = ORIENTED_EDGE ( 'NONE', *, *, #145, .T. ) ;
#16 = CC_DESIGN_SECURITY_CLASSIFICATION ( #61, ( #100 ) ) ;
#17 = CALENDAR_DATE ( 2017, 31, 1 ) ;
#18 = CC_DESIGN_PERSON_AND_ORGANIZATION_ASSIGNMENT ( #3, #83, ( #121 ) ) ;
#19 = CYLINDRICAL_SURFACE ( 'NONE', #89, 10.00000000000000200 ) ;
#20 = CIRCLE ( 'NONE', #125, 10.00000000000000200 ) ;
#21 = FACE_OUTER_BOUND ( 'NONE', #10, .T. ) ;
#22 = PERSON_AND_ORGANIZATION_ROLE ( 'creator' ) ;
#23 = DIRECTION ( 'NONE',  ( -1.000000000000000000, 0.0000000000000000000, 0.0000000000000000000 ) ) ;
#24 = ORIENTED_EDGE ( 'NONE', *, *, #113, .F. ) ;
#25 = DIRECTION ( 'NONE',  ( 0.0000000000000000000, 0.0000000000000000000, 1.000000000000000000 ) ) ;
#26 = LOCAL_TIME ( 14, 29, 37.00000000000000000, #32 ) ;
#27 = CARTESIAN_POINT ( 'NONE',  ( 0.0000000000000000000, 0.0000000000000000000, 0.0000000000000000000 ) ) ;
#28 = APPROVAL_ROLE ( '' ) ;
#29 = APPROVAL_DATE_TIME ( #162, #123 ) ;
#30 = AXIS2_PLACEMENT_3D ( 'NONE', #67, #38, #55 ) ;
#31 = APPROVAL_PERSON_ORGANIZATION ( #112, #12, #28 ) ;
#32 = COORDINATED_UNIVERSAL_TIME_OFFSET ( 5, 0, .BEHIND. ) ;
#33 = AXIS2_PLACEMENT_3D ( 'NONE', #36, #169, #152 ) ;
#34 = CARTESIAN_POINT ( 'NONE',  ( 0.0000000000000000000, 0.0000000000000000000, 0.0000000000000000000 ) ) ;
#35 = DIRECTION ( 'NONE',  ( 1.000000000000000000, 0.0000000000000000000, 0.0000000000000000000 ) ) ;
#36 = CARTESIAN_POINT ( 'NONE',  ( 0.0000000000000000000, 0.0000000000000000000, 2.000000000000000000 ) ) ;
#37 = PRODUCT_DEFINITION ( 'UNKNOWN', '', #100, #41 ) ;
#38 = DIRECTION ( 'NONE',  ( 0.0000000000000000000, 0.0000000000000000000, 1.000000000000000000 ) ) ;
#39 = DATE_AND_TIME ( #17, #4 ) ;
#40 = ADVANCED_FACE ( 'NONE', ( #120 ), #80, .T. ) ;
#41 = DESIGN_CONTEXT ( 'detailed design', #159, 'design' ) ;
#42 = PERSON ( 'UNSPECIFIED', 'UNSPECIFIED', 'UNSPECIFIED', ('UNSPECIFIED'), ('UNSPECIFIED'), ('UNSPECIFIED') ) ;
#43 = ORGANIZATION ( 'UNSPECIFIED', 'UNSPECIFIED', '' ) ;
#44 = ORIENTED_EDGE ( 'NONE', *, *, #118, .F. ) ;
#45 = CC_DESIGN_APPROVAL ( #156, ( #37 ) ) ;
#46 = CC_DESIGN_PERSON_AND_ORGANIZATION_ASSIGNMENT ( #62, #5, ( #61 ) ) ;
#47 = COORDINATED_UNIVERSAL_TIME_OFFSET ( 5, 0, .BEHIND. ) ;
#48 = CARTESIAN_POINT ( 'NONE',  ( 0.0000000000000000000, 0.0000000000000000000, 2.000000000000000000 ) ) ;
#49 = AXIS2_PLACEMENT_3D ( 'NONE', #34, #127, #79 ) ;
#50 = CC_DESIGN_APPROVAL ( #123, ( #61 ) ) ;
#51 = CARTESIAN_POINT ( 'NONE',  ( 0.0000000000000000000, 0.0000000000000000000, 2.000000000000000000 ) ) ;
#52 = CARTESIAN_POINT ( 'NONE',  ( -10.00000000000000200, 0.0000000000000000000, 2.000000000000000000 ) ) ;
#53 = APPROVAL_STATUS ( 'not_yet_approved' ) ;
#54 = ORIENTED_EDGE ( 'NONE', *, *, #1, .F. ) ;
#55 = DIRECTION ( 'NONE',  ( 1.000000000000000000, 0.0000000000000000000, 0.0000000000000000000 ) ) ;
#56 = CC_DESIGN_APPROVAL ( #12, ( #100 ) ) ;
#57 = CC_DESIGN_PERSON_AND_ORGANIZATION_ASSIGNMENT ( #75, #109, ( #37 ) ) ;
#58 = VERTEX_POINT ( 'NONE', #140 ) ;
#59 = FACE_OUTER_BOUND ( 'NONE', #165, .T. ) ;
#60 = AXIS2_PLACEMENT_3D ( 'NONE', #27, #13, #106 ) ;
#61 = SECURITY_CLASSIFICATION ( '', '', #91 ) ;
#62 = PERSON_AND_ORGANIZATION ( #42, #43 ) ;
#63 = ORIENTED_EDGE ( 'NONE', *, *, #155, .T. ) ;
#64 = CARTESIAN_POINT ( 'NONE',  ( 0.0000000000000000000, 0.0000000000000000000, 2.000000000000000000 ) ) ;
#65 =( LENGTH_UNIT ( ) NAMED_UNIT ( * ) SI_UNIT ( .MILLI., .METRE. ) );
#66 = CC_DESIGN_DATE_AND_TIME_ASSIGNMENT ( #2, #142, ( #37 ) ) ;
#67 = CARTESIAN_POINT ( 'NONE',  ( 0.0000000000000000000, 0.0000000000000000000, 0.0000000000000000000 ) ) ;
#68 = APPLICATION_CONTEXT ( 'configuration controlled 3d designs of mechanical parts and assemblies' ) ;
#69 = COORDINATED_UNIVERSAL_TIME_OFFSET ( 5, 0, .BEHIND. ) ;
#70 = CC_DESIGN_PERSON_AND_ORGANIZATION_ASSIGNMENT ( #163, #101, ( #100 ) ) ;
#71 = APPROVAL_PERSON_ORGANIZATION ( #99, #123, #6 ) ;
#72 = CC_DESIGN_DATE_AND_TIME_ASSIGNMENT ( #175, #76, ( #61 ) ) ;
#73 = LINE ( 'NONE', #8, #153 ) ;
#74 = LOCAL_TIME ( 14, 29, 37.00000000000000000, #69 ) ;
#75 = PERSON_AND_ORGANIZATION ( #42, #43 ) ;
#76 = DATE_TIME_ROLE ( 'classification_date' ) ;
#77 = ORIENTED_EDGE ( 'NONE', *, *, #118, .T. ) ;
#78 = DIRECTION ( 'NONE',  ( -0.0000000000000000000, -0.0000000000000000000, -1.000000000000000000 ) ) ;
#79 = DIRECTION ( 'NONE',  ( 1.000000000000000000, 0.0000000000000000000, 0.0000000000000000000 ) ) ;
#80 = PLANE ( 'NONE',  #33 ) ;
#81 = DIRECTION ( 'NONE',  ( -0.0000000000000000000, -0.0000000000000000000, -1.000000000000000000 ) ) ;
#82 = APPLICATION_PROTOCOL_DEFINITION ( 'international standard', 'config_control_design', 1994, #159 ) ;
#83 = PERSON_AND_ORGANIZATION_ROLE ( 'design_owner' ) ;
#84 = VERTEX_POINT ( 'NONE', #52 ) ;
#85 = ORIENTED_EDGE ( 'NONE', *, *, #160, .F. ) ;
#86 = ADVANCED_FACE ( 'NONE', ( #21 ), #94, .F. ) ;
#87 = CALENDAR_DATE ( 2017, 31, 1 ) ;
#88 = CIRCLE ( 'NONE', #173, 10.00000000000000200 ) ;
#89 = AXIS2_PLACEMENT_3D ( 'NONE', #157, #9, #23 ) ;
#90 = ORIENTED_EDGE ( 'NONE', *, *, #155, .F. ) ;
#91 = SECURITY_CLASSIFICATION_LEVEL ( 'unclassified' ) ;
#92 = ORIENTED_EDGE ( 'NONE', *, *, #145, .F. ) ;
#93 = DIRECTION ( 'NONE',  ( -0.0000000000000000000, -0.0000000000000000000, -1.000000000000000000 ) ) ;
#94 = PLANE ( 'NONE',  #60 ) ;
#95 = VECTOR ( 'NONE', #93, 1000.000000000000000 ) ;
#96 = APPROVAL_STATUS ( 'not_yet_approved' ) ;
#97 = ADVANCED_FACE ( 'NONE', ( #115 ), #19, .T. ) ;
#98 = DATE_AND_TIME ( #114, #111 ) ;
#99 = PERSON_AND_ORGANIZATION ( #42, #43 ) ;
#100 = PRODUCT_DEFINITION_FORMATION_WITH_SPECIFIED_SOURCE ( 'ANY', '', #121, .NOT_KNOWN. ) ;
#101 = PERSON_AND_ORGANIZATION_ROLE ( 'design_supplier' ) ;
#102 = ORIENTED_EDGE ( 'NONE', *, *, #113, .T. ) ;
#103 = DIRECTION ( 'NONE',  ( 0.0000000000000000000, 0.0000000000000000000, 1.000000000000000000 ) ) ;
#104 = CARTESIAN_POINT ( 'NONE',  ( 10.00000000000000200, 1.224646799147353500E-015, 2.000000000000000000 ) ) ;
#105 = APPROVAL_DATE_TIME ( #39, #156 ) ;
#106 = DIRECTION ( 'NONE',  ( 1.000000000000000000, 0.0000000000000000000, -0.0000000000000000000 ) ) ;
#107 = APPROVAL_PERSON_ORGANIZATION ( #135, #156, #171 ) ;
#108 = CARTESIAN_POINT ( 'NONE',  ( 0.0000000000000000000, 0.0000000000000000000, 0.0000000000000000000 ) ) ;
#109 = PERSON_AND_ORGANIZATION_ROLE ( 'creator' ) ;
#110 = VERTEX_POINT ( 'NONE', #7 ) ;
#111 = LOCAL_TIME ( 14, 29, 37.00000000000000000, #47 ) ;
#112 = PERSON_AND_ORGANIZATION ( #42, #43 ) ;
#113 = EDGE_CURVE ( 'NONE', #84, #58, #73, .T. ) ;
#114 = CALENDAR_DATE ( 2017, 31, 1 ) ;
#115 = FACE_OUTER_BOUND ( 'NONE', #117, .T. ) ;
#116 = APPROVAL_STATUS ( 'not_yet_approved' ) ;
#117 = EDGE_LOOP ( 'NONE', ( #54, #85, #102, #63 ) ) ;
#118 = EDGE_CURVE ( 'NONE', #138, #58, #161, .T. ) ;
#119 = COORDINATED_UNIVERSAL_TIME_OFFSET ( 5, 0, .BEHIND. ) ;
#120 = FACE_OUTER_BOUND ( 'NONE', #128, .T. ) ;
#121 = PRODUCT ( 'Web Model 65874', 'Web Model 65874', '', ( #130 ) ) ;
#122 = CC_DESIGN_PERSON_AND_ORGANIZATION_ASSIGNMENT ( #147, #22, ( #100 ) ) ;
#123 = APPROVAL ( #116, 'UNSPECIFIED' ) ;
#124 = ORIENTED_EDGE ( 'NONE', *, *, #1, .T. ) ;
#125 = AXIS2_PLACEMENT_3D ( 'NONE', #48, #168, #139 ) ;
#126 =( GEOMETRIC_REPRESENTATION_CONTEXT ( 3 ) GLOBAL_UNCERTAINTY_ASSIGNED_CONTEXT ( ( #144 ) ) GLOBAL_UNIT_ASSIGNED_CONTEXT ( ( #65, #154, #172 ) ) REPRESENTATION_CONTEXT ( 'NONE', 'WORKASPACE' ) );
#127 = DIRECTION ( 'NONE',  ( 0.0000000000000000000, 0.0000000000000000000, 1.000000000000000000 ) ) ;
#128 = EDGE_LOOP ( 'NONE', ( #149, #15 ) ) ;
#129 = DIRECTION ( 'NONE',  ( 1.000000000000000000, 0.0000000000000000000, 0.0000000000000000000 ) ) ;
#130 = MECHANICAL_CONTEXT ( 'NONE', #68, 'mechanical' ) ;
#131 = CALENDAR_DATE ( 2017, 31, 1 ) ;
#132 = CIRCLE ( 'NONE', #49, 10.00000000000000200 ) ;
#133 = LOCAL_TIME ( 14, 29, 37.00000000000000000, #119 ) ;
#134 = AXIS2_PLACEMENT_3D ( 'NONE', #51, #78, #166 ) ;
#135 = PERSON_AND_ORGANIZATION ( #42, #43 ) ;
#136 = PRODUCT_RELATED_PRODUCT_CATEGORY ( 'detail', '', ( #121 ) ) ;
#137 = SHAPE_DEFINITION_REPRESENTATION ( #164, #141 ) ;
#138 = VERTEX_POINT ( 'NONE', #170 ) ;
#139 = DIRECTION ( 'NONE',  ( 1.000000000000000000, 0.0000000000000000000, 0.0000000000000000000 ) ) ;
#140 = CARTESIAN_POINT ( 'NONE',  ( -10.00000000000000200, 0.0000000000000000000, 0.0000000000000000000 ) ) ;
#141 = ADVANCED_BREP_SHAPE_REPRESENTATION ( 'Web Model 65874', ( #167, #30 ), #126 ) ;
#142 = DATE_TIME_ROLE ( 'creation_date' ) ;
#143 = CALENDAR_DATE ( 2017, 31, 1 ) ;
#144 = UNCERTAINTY_MEASURE_WITH_UNIT (LENGTH_MEASURE( 1.000000000000000100E-005 ), #65, 'distance_accuracy_value', 'NONE');
#145 = EDGE_CURVE ( 'NONE', #110, #84, #20, .T. ) ;
#146 = LINE ( 'NONE', #104, #95 ) ;
#147 = PERSON_AND_ORGANIZATION ( #42, #43 ) ;
#148 = CLOSED_SHELL ( 'NONE', ( #174, #97, #40, #86 ) ) ;
#149 = ORIENTED_EDGE ( 'NONE', *, *, #160, .T. ) ;
#150 = COORDINATED_UNIVERSAL_TIME_OFFSET ( 5, 0, .BEHIND. ) ;
#151 = CYLINDRICAL_SURFACE ( 'NONE', #134, 10.00000000000000200 ) ;
#152 = DIRECTION ( 'NONE',  ( 1.000000000000000000, 0.0000000000000000000, -0.0000000000000000000 ) ) ;
#153 = VECTOR ( 'NONE', #81, 1000.000000000000000 ) ;
#154 =( NAMED_UNIT ( * ) PLANE_ANGLE_UNIT ( ) SI_UNIT ( $, .RADIAN. ) );
#155 = EDGE_CURVE ( 'NONE', #58, #138, #132, .T. ) ;
#156 = APPROVAL ( #53, 'UNSPECIFIED' ) ;
#157 = CARTESIAN_POINT ( 'NONE',  ( 0.0000000000000000000, 0.0000000000000000000, 2.000000000000000000 ) ) ;
#158 = APPROVAL_DATE_TIME ( #98, #12 ) ;
#159 = APPLICATION_CONTEXT ( 'configuration controlled 3d designs of mechanical parts and assemblies' ) ;
#160 = EDGE_CURVE ( 'NONE', #84, #110, #88, .T. ) ;
#161 = CIRCLE ( 'NONE', #11, 10.00000000000000200 ) ;
#162 = DATE_AND_TIME ( #131, #26 ) ;
#163 = PERSON_AND_ORGANIZATION ( #42, #43 ) ;
#164 = PRODUCT_DEFINITION_SHAPE ( 'NONE', 'NONE',  #37 ) ;
#165 = EDGE_LOOP ( 'NONE', ( #92, #124, #77, #24 ) ) ;
#166 = DIRECTION ( 'NONE',  ( -1.000000000000000000, 0.0000000000000000000, 0.0000000000000000000 ) ) ;
#167 = MANIFOLD_SOLID_BREP ( 'Extrude1', #148 ) ;
#168 = DIRECTION ( 'NONE',  ( 0.0000000000000000000, 0.0000000000000000000, 1.000000000000000000 ) ) ;
#169 = DIRECTION ( 'NONE',  ( 0.0000000000000000000, 0.0000000000000000000, 1.000000000000000000 ) ) ;
#170 = CARTESIAN_POINT ( 'NONE',  ( 10.00000000000000200, 1.224646799147353500E-015, 0.0000000000000000000 ) ) ;
#171 = APPROVAL_ROLE ( '' ) ;
#172 =( NAMED_UNIT ( * ) SI_UNIT ( $, .STERADIAN. ) SOLID_ANGLE_UNIT ( ) );
#173 = AXIS2_PLACEMENT_3D ( 'NONE', #64, #25, #129 ) ;
#174 = ADVANCED_FACE ( 'NONE', ( #59 ), #151, .T. ) ;
#175 = DATE_AND_TIME ( #143, #74 ) ;
ENDSEC;
END-ISO-10303-21;
