ISO-10303-21;
HEADER;
FILE_DESCRIPTION (( 'STEP AP214' ),
    '1' );
FILE_NAME ('3245-E0W.STEP',
    '2009-12-21T16:55:31',
    ( ' ' ),
    ( ' ' ),
    'SwSTEP 2.0',
    'SolidWorks 2009',
    '' );
FILE_SCHEMA (( 'AUTOMOTIVE_DESIGN' ));
ENDSEC;

DATA;
#1 =( NAMED_UNIT ( * ) PLANE_ANGLE_UNIT ( ) SI_UNIT ( $, .RADIAN. ) );
#2 =( LENGTH_UNIT ( ) NAMED_UNIT ( * ) SI_UNIT ( .MILLI., .METRE. ) );
#3 = MECHANICAL_DESIGN_GEOMETRIC_PRESENTATION_REPRESENTATION (  '', ( #5 ), #74 ) ;
#4 = PRESENTATION_LAYER_ASSIGNMENT (  '', '', ( #5 ) ) ;
#5 = STYLED_ITEM ( 'NONE', ( #6 ), #105 ) ;
#6 = PRESENTATION_STYLE_ASSIGNMENT (( #7 ) ) ;
#7 = SURFACE_STYLE_USAGE ( .BOTH. , #8 ) ;
#8 = SURFACE_SIDE_STYLE ('',( #9 ) ) ;
#9 = SURFACE_STYLE_FILL_AREA ( #10 ) ;
#10 = FILL_AREA_STYLE ('',( #11 ) ) ;
#11 = FILL_AREA_STYLE_COLOUR ( '', #12 ) ;
#12 = COLOUR_RGB ( '',0.9568627450980391500, 0.9490196078431372100, 0.9607843137254902200 ) ;
#13 = FACE_OUTER_BOUND ( 'NONE', #107, .T. ) ;
#14 = CARTESIAN_POINT ( 'NONE',  ( 12.69999999999999900, 0.0000000000000000000, -5.870000000000000100 ) ) ;
#15 = DIRECTION ( 'NONE',  ( 1.000000000000000000, 0.0000000000000000000, 0.0000000000000000000 ) ) ;
#16 = DIRECTION ( 'NONE',  ( -0.0000000000000000000, -0.0000000000000000000, 1.000000000000000000 ) ) ;
#17 = CARTESIAN_POINT ( 'NONE',  ( 0.0000000000000000000, 0.0000000000000000000, -5.870000000000000100 ) ) ;
#18 = AXIS2_PLACEMENT_3D ( 'NONE', #17, #16, #15 ) ;
#19 = CIRCLE ( 'NONE', #18, 12.69999999999999900 ) ;
#20 = CARTESIAN_POINT ( 'NONE',  ( -1.555250069354419300E-015, -12.69999999999999900, -4.080079873223597900 ) ) ;
#21 = DIRECTION ( 'NONE',  ( 1.000000000000000000, 0.0000000000000000000, 0.0000000000000000000 ) ) ;
#22 = DIRECTION ( 'NONE',  ( -0.0000000000000000000, -0.0000000000000000000, 1.000000000000000000 ) ) ;
#23 = CARTESIAN_POINT ( 'NONE',  ( 0.0000000000000000000, 0.0000000000000000000, -4.080079873223597900 ) ) ;
#24 = AXIS2_PLACEMENT_3D ( 'NONE', #23, #22, #21 ) ;
#25 = DIRECTION ( 'NONE',  ( 1.000000000000000000, 0.0000000000000000000, 0.0000000000000000000 ) ) ;
#26 = DIRECTION ( 'NONE',  ( 0.0000000000000000000, -0.0000000000000000000, 1.000000000000000000 ) ) ;
#27 = ORIENTED_EDGE ( 'NONE', *, *, #152, .T. ) ;
#28 = ORIENTED_EDGE ( 'NONE', *, *, #29, .T. ) ;
#29 = EDGE_CURVE ( 'NONE', #68, #30, #54, .T. ) ;
#30 = VERTEX_POINT ( 'NONE', #49 ) ;
#31 = EDGE_CURVE ( 'NONE', #169, #32, #48, .T. ) ;
#32 = VERTEX_POINT ( 'NONE', #44 ) ;
#33 = ORIENTED_EDGE ( 'NONE', *, *, #34, .F. ) ;
#34 = EDGE_CURVE ( 'NONE', #150, #32, #42, .T. ) ;
#35 = ORIENTED_EDGE ( 'NONE', *, *, #36, .F. ) ;
#36 = EDGE_CURVE ( 'NONE', #104, #153, #43, .T. ) ;
#37 = ADVANCED_FACE ( 'NONE', ( #120 ), #72, .T. ) ;
#38 = DIRECTION ( 'NONE',  ( 1.000000000000000000, 0.0000000000000000000, 0.0000000000000000000 ) ) ;
#39 = DIRECTION ( 'NONE',  ( -0.0000000000000000000, -0.0000000000000000000, 1.000000000000000000 ) ) ;
#40 = CARTESIAN_POINT ( 'NONE',  ( 0.0000000000000000000, 0.0000000000000000000, -4.080079873223597900 ) ) ;
#41 = AXIS2_PLACEMENT_3D ( 'NONE', #40, #39, #38 ) ;
#42 = CIRCLE ( 'NONE', #41, 12.69999999999999900 ) ;
#43 = LINE ( 'NONE', #123, #122 ) ;
#44 = CARTESIAN_POINT ( 'NONE',  ( -12.69999999999999900, 1.555250069354419100E-015, -4.080079873223597900 ) ) ;
#45 = DIRECTION ( 'NONE',  ( -0.0000000000000000000, -0.0000000000000000000, 1.000000000000000000 ) ) ;
#46 = VECTOR ( 'NONE', #45, 1000.000000000000000 ) ;
#47 = CARTESIAN_POINT ( 'NONE',  ( -12.69999999999999900, 1.555250069354419100E-015, 4.308132045400366600 ) ) ;
#48 = LINE ( 'NONE', #47, #46 ) ;
#49 = CARTESIAN_POINT ( 'NONE',  ( 0.0000000000000000000, 8.008925553998347600E-016, 5.870000000000000100 ) ) ;
#50 = DIRECTION ( 'NONE',  ( -1.224606353822377000E-016, -1.000000000000000000, 0.0000000000000000000 ) ) ;
#51 = DIRECTION ( 'NONE',  ( -1.000000000000000000, 1.224606353822377300E-016, 0.0000000000000000000 ) ) ;
#52 = CARTESIAN_POINT ( 'NONE',  ( 0.0000000000000000000, 0.0000000000000000000, -7.210000000000000900 ) ) ;
#53 = AXIS2_PLACEMENT_3D ( 'NONE', #52, #51, #50 ) ;
#54 = CIRCLE ( 'NONE', #53, 13.08000000000000200 ) ;
#55 = ORIENTED_EDGE ( 'NONE', *, *, #56, .T. ) ;
#56 = EDGE_CURVE ( 'NONE', #169, #104, #71, .T. ) ;
#57 = ADVANCED_FACE ( 'NONE', ( #84 ), #95, .F. ) ;
#58 = ORIENTED_EDGE ( 'NONE', *, *, #103, .F. ) ;
#59 = ORIENTED_EDGE ( 'NONE', *, *, #31, .F. ) ;
#60 = EDGE_LOOP ( 'NONE', ( #58, #65 ) ) ;
#61 = ORIENTED_EDGE ( 'NONE', *, *, #36, .T. ) ;
#62 = ORIENTED_EDGE ( 'NONE', *, *, #149, .F. ) ;
#63 = CLOSED_SHELL ( 'NONE', ( #171, #37, #159, #105, #57 ) ) ;
#64 = ORIENTED_EDGE ( 'NONE', *, *, #67, .F. ) ;
#65 = ORIENTED_EDGE ( 'NONE', *, *, #56, .F. ) ;
#66 = ORIENTED_EDGE ( 'NONE', *, *, #67, .T. ) ;
#67 = EDGE_CURVE ( 'NONE', #32, #68, #94, .T. ) ;
#68 = VERTEX_POINT ( 'NONE', #20 ) ;
#69 = CARTESIAN_POINT ( 'NONE',  ( 0.0000000000000000000, 0.0000000000000000000, -7.210000000000000900 ) ) ;
#70 = AXIS2_PLACEMENT_3D ( 'NONE', #69, #91, #90 ) ;
#71 = CIRCLE ( 'NONE', #88, 12.69999999999999900 ) ;
#72 = SPHERICAL_SURFACE ( 'NONE', #70, 13.08000000000000200 ) ;
#73 =( GEOMETRIC_REPRESENTATION_CONTEXT ( 3 ) GLOBAL_UNCERTAINTY_ASSIGNED_CONTEXT ( ( #160 ) ) GLOBAL_UNIT_ASSIGNED_CONTEXT ( ( #163, #162, #161 ) ) REPRESENTATION_CONTEXT ( 'NONE', 'WORKASPACE' ) );
#74 =( GEOMETRIC_REPRESENTATION_CONTEXT ( 3 ) GLOBAL_UNCERTAINTY_ASSIGNED_CONTEXT ( ( #75 ) ) GLOBAL_UNIT_ASSIGNED_CONTEXT ( ( #2, #1, #76 ) ) REPRESENTATION_CONTEXT ( 'NONE', 'WORKASPACE' ) );
#75 = UNCERTAINTY_MEASURE_WITH_UNIT (LENGTH_MEASURE( 1.000000000000000100E-005 ), #2, 'distance_accuracy_value', 'NONE');
#76 =( NAMED_UNIT ( * ) SI_UNIT ( $, .STERADIAN. ) SOLID_ANGLE_UNIT ( ) );
#77 = STYLED_ITEM ( 'NONE', ( #78 ), #57 ) ;
#78 = PRESENTATION_STYLE_ASSIGNMENT (( #79 ) ) ;
#79 = SURFACE_STYLE_USAGE ( .BOTH. , #80 ) ;
#80 = SURFACE_SIDE_STYLE ('',( #81 ) ) ;
#81 = SURFACE_STYLE_FILL_AREA ( #82 ) ;
#82 = FILL_AREA_STYLE ('',( #89 ) ) ;
#83 = COLOUR_RGB ( '',0.9568627450980391500, 0.9490196078431372100, 0.9607843137254902200 ) ;
#84 = FACE_OUTER_BOUND ( 'NONE', #60, .T. ) ;
#85 = DIRECTION ( 'NONE',  ( 1.000000000000000000, 0.0000000000000000000, 0.0000000000000000000 ) ) ;
#86 = DIRECTION ( 'NONE',  ( -0.0000000000000000000, -0.0000000000000000000, 1.000000000000000000 ) ) ;
#87 = CARTESIAN_POINT ( 'NONE',  ( 0.0000000000000000000, 0.0000000000000000000, -5.870000000000000100 ) ) ;
#88 = AXIS2_PLACEMENT_3D ( 'NONE', #87, #86, #85 ) ;
#89 = FILL_AREA_STYLE_COLOUR ( '', #83 ) ;
#90 = DIRECTION ( 'NONE',  ( 0.0000000000000000000, 1.000000000000000000, 0.0000000000000000000 ) ) ;
#91 = DIRECTION ( 'NONE',  ( -1.000000000000000000, 0.0000000000000000000, 0.0000000000000000000 ) ) ;
#92 = CARTESIAN_POINT ( 'NONE',  ( 0.0000000000000000000, 2.156603013298489200E-015, -5.870000000000000100 ) ) ;
#93 = AXIS2_PLACEMENT_3D ( 'NONE', #92, #26, #25 ) ;
#94 = CIRCLE ( 'NONE', #24, 12.69999999999999900 ) ;
#95 = PLANE ( 'NONE',  #93 ) ;
#96 =( GEOMETRIC_REPRESENTATION_CONTEXT ( 3 ) GLOBAL_UNCERTAINTY_ASSIGNED_CONTEXT ( ( #97 ) ) GLOBAL_UNIT_ASSIGNED_CONTEXT ( ( #100, #99, #98 ) ) REPRESENTATION_CONTEXT ( 'NONE', 'WORKASPACE' ) );
#97 = UNCERTAINTY_MEASURE_WITH_UNIT (LENGTH_MEASURE( 1.000000000000000100E-005 ), #100, 'distance_accuracy_value', 'NONE');
#98 =( NAMED_UNIT ( * ) SI_UNIT ( $, .STERADIAN. ) SOLID_ANGLE_UNIT ( ) );
#99 =( NAMED_UNIT ( * ) PLANE_ANGLE_UNIT ( ) SI_UNIT ( $, .RADIAN. ) );
#100 =( LENGTH_UNIT ( ) NAMED_UNIT ( * ) SI_UNIT ( .MILLI., .METRE. ) );
#101 = MECHANICAL_DESIGN_GEOMETRIC_PRESENTATION_REPRESENTATION (  '', ( #77 ), #96 ) ;
#102 = PRESENTATION_LAYER_ASSIGNMENT (  '', '', ( #77 ) ) ;
#103 = EDGE_CURVE ( 'NONE', #104, #169, #19, .T. ) ;
#104 = VERTEX_POINT ( 'NONE', #14 ) ;
#105 = ADVANCED_FACE ( 'NONE', ( #13 ), #113, .T. ) ;
#106 = ORIENTED_EDGE ( 'NONE', *, *, #158, .T. ) ;
#107 = EDGE_LOOP ( 'NONE', ( #59, #55, #61, #62, #64 ) ) ;
#108 = CIRCLE ( 'NONE', #146, 12.69999999999999900 ) ;
#109 = DIRECTION ( 'NONE',  ( 1.000000000000000000, 0.0000000000000000000, 0.0000000000000000000 ) ) ;
#110 = DIRECTION ( 'NONE',  ( -0.0000000000000000000, -0.0000000000000000000, 1.000000000000000000 ) ) ;
#111 = CARTESIAN_POINT ( 'NONE',  ( 0.0000000000000000000, 0.0000000000000000000, 4.308132045400366600 ) ) ;
#112 = AXIS2_PLACEMENT_3D ( 'NONE', #111, #110, #109 ) ;
#113 = CYLINDRICAL_SURFACE ( 'NONE', #112, 12.69999999999999900 ) ;
#114 = PRESENTATION_STYLE_ASSIGNMENT (( #115 ) ) ;
#115 = SURFACE_STYLE_USAGE ( .BOTH. , #116 ) ;
#116 = SURFACE_SIDE_STYLE ('',( #117 ) ) ;
#117 = SURFACE_STYLE_FILL_AREA ( #118 ) ;
#118 = FILL_AREA_STYLE ('',( #124 ) ) ;
#119 = COLOUR_RGB ( '',0.9568627450980391500, 0.9490196078431372100, 0.9607843137254902200 ) ;
#120 = FACE_OUTER_BOUND ( 'NONE', #154, .T. ) ;
#121 = DIRECTION ( 'NONE',  ( -0.0000000000000000000, -0.0000000000000000000, 1.000000000000000000 ) ) ;
#122 = VECTOR ( 'NONE', #121, 1000.000000000000000 ) ;
#123 = CARTESIAN_POINT ( 'NONE',  ( 12.69999999999999900, 0.0000000000000000000, 4.308132045400366600 ) ) ;
#124 = FILL_AREA_STYLE_COLOUR ( '', #119 ) ;
#125 =( LENGTH_UNIT ( ) NAMED_UNIT ( * ) SI_UNIT ( .MILLI., .METRE. ) );
#126 = MECHANICAL_DESIGN_GEOMETRIC_PRESENTATION_REPRESENTATION (  '', ( #128 ), #187 ) ;
#127 = PRESENTATION_LAYER_ASSIGNMENT (  '', '', ( #128 ) ) ;
#128 = STYLED_ITEM ( 'NONE', ( #129 ), #156 ) ;
#129 = PRESENTATION_STYLE_ASSIGNMENT (( #130 ) ) ;
#130 = SURFACE_STYLE_USAGE ( .BOTH. , #131 ) ;
#131 = SURFACE_SIDE_STYLE ('',( #132 ) ) ;
#132 = SURFACE_STYLE_FILL_AREA ( #133 ) ;
#133 = FILL_AREA_STYLE ('',( #134 ) ) ;
#134 = FILL_AREA_STYLE_COLOUR ( '', #135 ) ;
#135 = COLOUR_RGB ( '',0.7960784313725489700, 0.8235294117647058400, 0.9372549019607843100 ) ;
#136 = CARTESIAN_POINT ( 'NONE',  ( 12.69999999999999900, 0.0000000000000000000, -4.080079873223597900 ) ) ;
#137 = DIRECTION ( 'NONE',  ( 1.000000000000000000, 0.0000000000000000000, 0.0000000000000000000 ) ) ;
#138 = DIRECTION ( 'NONE',  ( -0.0000000000000000000, -0.0000000000000000000, 1.000000000000000000 ) ) ;
#139 = CARTESIAN_POINT ( 'NONE',  ( 0.0000000000000000000, 0.0000000000000000000, -4.080079873223597900 ) ) ;
#140 = AXIS2_PLACEMENT_3D ( 'NONE', #139, #138, #137 ) ;
#141 = CIRCLE ( 'NONE', #140, 12.69999999999999900 ) ;
#142 = CARTESIAN_POINT ( 'NONE',  ( 0.0000000000000000000, 12.69999999999999900, -4.080079873223597900 ) ) ;
#143 = DIRECTION ( 'NONE',  ( 1.000000000000000000, 0.0000000000000000000, 0.0000000000000000000 ) ) ;
#144 = DIRECTION ( 'NONE',  ( -0.0000000000000000000, -0.0000000000000000000, 1.000000000000000000 ) ) ;
#145 = CARTESIAN_POINT ( 'NONE',  ( 0.0000000000000000000, 0.0000000000000000000, -4.080079873223597900 ) ) ;
#146 = AXIS2_PLACEMENT_3D ( 'NONE', #145, #144, #143 ) ;
#147 = ORIENTED_EDGE ( 'NONE', *, *, #34, .T. ) ;
#148 = ORIENTED_EDGE ( 'NONE', *, *, #149, .T. ) ;
#149 = EDGE_CURVE ( 'NONE', #68, #153, #108, .T. ) ;
#150 = VERTEX_POINT ( 'NONE', #142 ) ;
#151 = ORIENTED_EDGE ( 'NONE', *, *, #152, .F. ) ;
#152 = EDGE_CURVE ( 'NONE', #153, #150, #141, .T. ) ;
#153 = VERTEX_POINT ( 'NONE', #136 ) ;
#154 = EDGE_LOOP ( 'NONE', ( #147, #66, #28, #157 ) ) ;
#155 = EDGE_LOOP ( 'NONE', ( #172, #170, #33, #151, #35 ) ) ;
#156 = MANIFOLD_SOLID_BREP ( 'NONE', #63 ) ;
#157 = ORIENTED_EDGE ( 'NONE', *, *, #158, .F. ) ;
#158 = EDGE_CURVE ( 'NONE', #150, #30, #191, .T. ) ;
#159 = ADVANCED_FACE ( 'NONE', ( #249 ), #257, .T. ) ;
#160 = UNCERTAINTY_MEASURE_WITH_UNIT (LENGTH_MEASURE( 1.000000000000000100E-005 ), #163, 'distance_accuracy_value', 'NONE');
#161 =( NAMED_UNIT ( * ) SI_UNIT ( $, .STERADIAN. ) SOLID_ANGLE_UNIT ( ) );
#162 =( NAMED_UNIT ( * ) PLANE_ANGLE_UNIT ( ) SI_UNIT ( $, .RADIAN. ) );
#163 =( LENGTH_UNIT ( ) NAMED_UNIT ( * ) SI_UNIT ( .MILLI., .METRE. ) );
#164 = MECHANICAL_DESIGN_GEOMETRIC_PRESENTATION_REPRESENTATION (  '', ( #166 ), #73 ) ;
#165 = PRESENTATION_LAYER_ASSIGNMENT (  '', '', ( #166 ) ) ;
#166 = STYLED_ITEM ( 'NONE', ( #114 ), #37 ) ;
#167 = EDGE_LOOP ( 'NONE', ( #168, #148, #27, #106 ) ) ;
#168 = ORIENTED_EDGE ( 'NONE', *, *, #29, .F. ) ;
#169 = VERTEX_POINT ( 'NONE', #206 ) ;
#170 = ORIENTED_EDGE ( 'NONE', *, *, #31, .T. ) ;
#171 = ADVANCED_FACE ( 'NONE', ( #205 ), #179, .T. ) ;
#172 = ORIENTED_EDGE ( 'NONE', *, *, #103, .T. ) ;
#173 =( LENGTH_UNIT ( ) NAMED_UNIT ( * ) SI_UNIT ( .MILLI., .METRE. ) );
#174 = DIRECTION ( 'NONE',  ( 1.000000000000000000, 0.0000000000000000000, 0.0000000000000000000 ) ) ;
#175 = DIRECTION ( 'NONE',  ( -0.0000000000000000000, -0.0000000000000000000, 1.000000000000000000 ) ) ;
#176 = CARTESIAN_POINT ( 'NONE',  ( 0.0000000000000000000, 0.0000000000000000000, 4.308132045400366600 ) ) ;
#177 = AXIS2_PLACEMENT_3D ( 'NONE', #176, #175, #174 ) ;
#178 = CARTESIAN_POINT ( 'NONE',  ( 0.0000000000000000000, 0.0000000000000000000, 0.0000000000000000000 ) ) ;
#179 = CYLINDRICAL_SURFACE ( 'NONE', #177, 12.69999999999999900 ) ;
#180 =( GEOMETRIC_REPRESENTATION_CONTEXT ( 3 ) GLOBAL_UNCERTAINTY_ASSIGNED_CONTEXT ( ( #186 ) ) GLOBAL_UNIT_ASSIGNED_CONTEXT ( ( #194, #182, #181 ) ) REPRESENTATION_CONTEXT ( 'NONE', 'WORKASPACE' ) );
#181 =( NAMED_UNIT ( * ) SI_UNIT ( $, .STERADIAN. ) SOLID_ANGLE_UNIT ( ) );
#182 =( NAMED_UNIT ( * ) PLANE_ANGLE_UNIT ( ) SI_UNIT ( $, .RADIAN. ) );
#183 = UNCERTAINTY_MEASURE_WITH_UNIT (LENGTH_MEASURE( 1.000000000000000100E-005 ), #173, 'distance_accuracy_value', 'NONE');
#184 =( NAMED_UNIT ( * ) SI_UNIT ( $, .STERADIAN. ) SOLID_ANGLE_UNIT ( ) );
#185 =( NAMED_UNIT ( * ) PLANE_ANGLE_UNIT ( ) SI_UNIT ( $, .RADIAN. ) );
#186 = UNCERTAINTY_MEASURE_WITH_UNIT (LENGTH_MEASURE( 1.000000000000000100E-005 ), #194, 'distance_accuracy_value', 'NONE');
#187 =( GEOMETRIC_REPRESENTATION_CONTEXT ( 3 ) GLOBAL_UNCERTAINTY_ASSIGNED_CONTEXT ( ( #261 ) ) GLOBAL_UNIT_ASSIGNED_CONTEXT ( ( #125, #253, #193 ) ) REPRESENTATION_CONTEXT ( 'NONE', 'WORKASPACE' ) );
#188 = UNCERTAINTY_MEASURE_WITH_UNIT (LENGTH_MEASURE( 1.000000000000000100E-005 ), #258, 'distance_accuracy_value', 'NONE');
#189 =( NAMED_UNIT ( * ) SI_UNIT ( $, .STERADIAN. ) SOLID_ANGLE_UNIT ( ) );
#190 = AXIS2_PLACEMENT_3D ( 'NONE', #252, #251, #250 ) ;
#191 = CIRCLE ( 'NONE', #190, 13.08000000000000200 ) ;
#192 = FILL_AREA_STYLE_COLOUR ( '', #248 ) ;
#193 =( NAMED_UNIT ( * ) SI_UNIT ( $, .STERADIAN. ) SOLID_ANGLE_UNIT ( ) );
#194 =( LENGTH_UNIT ( ) NAMED_UNIT ( * ) SI_UNIT ( .MILLI., .METRE. ) );
#195 = MECHANICAL_DESIGN_GEOMETRIC_PRESENTATION_REPRESENTATION (  '', ( #197 ), #180 ) ;
#196 = PRESENTATION_LAYER_ASSIGNMENT (  '', '', ( #197 ) ) ;
#197 = STYLED_ITEM ( 'NONE', ( #198 ), #171 ) ;
#198 = PRESENTATION_STYLE_ASSIGNMENT (( #199 ) ) ;
#199 = SURFACE_STYLE_USAGE ( .BOTH. , #200 ) ;
#200 = SURFACE_SIDE_STYLE ('',( #201 ) ) ;
#201 = SURFACE_STYLE_FILL_AREA ( #202 ) ;
#202 = FILL_AREA_STYLE ('',( #203 ) ) ;
#203 = FILL_AREA_STYLE_COLOUR ( '', #204 ) ;
#204 = COLOUR_RGB ( '',0.9568627450980391500, 0.9490196078431372100, 0.9607843137254902200 ) ;
#205 = FACE_OUTER_BOUND ( 'NONE', #155, .T. ) ;
#206 = CARTESIAN_POINT ( 'NONE',  ( -12.69999999999999900, 1.555250069354419100E-015, -5.870000000000000100 ) ) ;
#207 = DIRECTION ( 'NONE',  ( 0.0000000000000000000, 1.000000000000000000, 0.0000000000000000000 ) ) ;
#208 = AXIS2_PLACEMENT_3D ( 'NONE', #256, #254, #207 ) ;
#209 = PRODUCT_DEFINITION_SHAPE ( 'NONE', 'NONE',  #212 ) ;
#210 = PRODUCT_RELATED_PRODUCT_CATEGORY ( 'part', '', ( #216 ) ) ;
#211 = PRODUCT_DEFINITION_FORMATION_WITH_SPECIFIED_SOURCE ( 'ANY', '', #216, .NOT_KNOWN. ) ;
#212 = PRODUCT_DEFINITION ( 'UNKNOWN', '', #211, #213 ) ;
#213 = PRODUCT_DEFINITION_CONTEXT ( 'detailed design', #215, 'design' ) ;
#214 = APPLICATION_PROTOCOL_DEFINITION ( 'draft international standard', 'automotive_design', 1998, #215 ) ;
#215 = APPLICATION_CONTEXT ( 'automotive_design' ) ;
#216 = PRODUCT ( '3245-E0W', '3245-E0W', '', ( #217 ) ) ;
#217 = PRODUCT_CONTEXT ( 'NONE', #244, 'mechanical' ) ;
#218 = APPLICATION_PROTOCOL_DEFINITION ( 'draft international standard', 'automotive_design', 1998, #244 ) ;
#219 = PRESENTATION_LAYER_ASSIGNMENT (  '', '', ( #220 ) ) ;
#220 = STYLED_ITEM ( 'NONE', ( #221 ), #159 ) ;
#221 = PRESENTATION_STYLE_ASSIGNMENT (( #222 ) ) ;
#222 = SURFACE_STYLE_USAGE ( .BOTH. , #223 ) ;
#223 = SURFACE_SIDE_STYLE ('',( #224 ) ) ;
#224 = SURFACE_STYLE_FILL_AREA ( #225 ) ;
#225 = FILL_AREA_STYLE ('',( #192 ) ) ;
#226 = DIRECTION ( 'NONE',  ( 1.000000000000000000, 0.0000000000000000000, 0.0000000000000000000 ) ) ;
#227 = DIRECTION ( 'NONE',  ( 0.0000000000000000000, 0.0000000000000000000, 1.000000000000000000 ) ) ;
#228 = AXIS2_PLACEMENT_3D ( 'NONE', #178, #227, #226 ) ;
#229 =( GEOMETRIC_REPRESENTATION_CONTEXT ( 3 ) GLOBAL_UNCERTAINTY_ASSIGNED_CONTEXT ( ( #230 ) ) GLOBAL_UNIT_ASSIGNED_CONTEXT ( ( #233, #232, #231 ) ) REPRESENTATION_CONTEXT ( 'NONE', 'WORKASPACE' ) );
#230 = UNCERTAINTY_MEASURE_WITH_UNIT (LENGTH_MEASURE( 1.000000000000000100E-005 ), #233, 'distance_accuracy_value', 'NONE');
#231 =( NAMED_UNIT ( * ) SI_UNIT ( $, .STERADIAN. ) SOLID_ANGLE_UNIT ( ) );
#232 =( NAMED_UNIT ( * ) PLANE_ANGLE_UNIT ( ) SI_UNIT ( $, .RADIAN. ) );
#233 =( LENGTH_UNIT ( ) NAMED_UNIT ( * ) SI_UNIT ( .MILLI., .METRE. ) );
#234 = MECHANICAL_DESIGN_GEOMETRIC_PRESENTATION_REPRESENTATION (  '', ( #236 ), #229 ) ;
#235 = PRESENTATION_LAYER_ASSIGNMENT (  '', '', ( #236 ) ) ;
#236 = STYLED_ITEM ( 'NONE', ( #237 ), #246 ) ;
#237 = PRESENTATION_STYLE_ASSIGNMENT (( #238 ) ) ;
#238 = SURFACE_STYLE_USAGE ( .BOTH. , #239 ) ;
#239 = SURFACE_SIDE_STYLE ('',( #240 ) ) ;
#240 = SURFACE_STYLE_FILL_AREA ( #241 ) ;
#241 = FILL_AREA_STYLE ('',( #242 ) ) ;
#242 = FILL_AREA_STYLE_COLOUR ( '', #243 ) ;
#243 = COLOUR_RGB ( '',0.7960784313725489700, 0.8235294117647058400, 0.9372549019607843100 ) ;
#244 = APPLICATION_CONTEXT ( 'automotive_design' ) ;
#245 = SHAPE_DEFINITION_REPRESENTATION ( #209, #246 ) ;
#246 = ADVANCED_BREP_SHAPE_REPRESENTATION ( '3245-E0W', ( #156, #228 ), #247 ) ;
#247 =( GEOMETRIC_REPRESENTATION_CONTEXT ( 3 ) GLOBAL_UNCERTAINTY_ASSIGNED_CONTEXT ( ( #183 ) ) GLOBAL_UNIT_ASSIGNED_CONTEXT ( ( #173, #185, #184 ) ) REPRESENTATION_CONTEXT ( 'NONE', 'WORKASPACE' ) );
#248 = COLOUR_RGB ( '',0.9568627450980391500, 0.9490196078431372100, 0.9607843137254902200 ) ;
#249 = FACE_OUTER_BOUND ( 'NONE', #167, .T. ) ;
#250 = DIRECTION ( 'NONE',  ( 0.0000000000000000000, 0.0000000000000000000, -1.000000000000000000 ) ) ;
#251 = DIRECTION ( 'NONE',  ( 1.000000000000000000, 0.0000000000000000000, 0.0000000000000000000 ) ) ;
#252 = CARTESIAN_POINT ( 'NONE',  ( 0.0000000000000000000, 0.0000000000000000000, -7.210000000000000900 ) ) ;
#253 =( NAMED_UNIT ( * ) PLANE_ANGLE_UNIT ( ) SI_UNIT ( $, .RADIAN. ) );
#254 = DIRECTION ( 'NONE',  ( -1.000000000000000000, 0.0000000000000000000, 0.0000000000000000000 ) ) ;
#255 =( GEOMETRIC_REPRESENTATION_CONTEXT ( 3 ) GLOBAL_UNCERTAINTY_ASSIGNED_CONTEXT ( ( #188 ) ) GLOBAL_UNIT_ASSIGNED_CONTEXT ( ( #258, #260, #189 ) ) REPRESENTATION_CONTEXT ( 'NONE', 'WORKASPACE' ) );
#256 = CARTESIAN_POINT ( 'NONE',  ( 0.0000000000000000000, 0.0000000000000000000, -7.210000000000000900 ) ) ;
#257 = SPHERICAL_SURFACE ( 'NONE', #208, 13.08000000000000200 ) ;
#258 =( LENGTH_UNIT ( ) NAMED_UNIT ( * ) SI_UNIT ( .MILLI., .METRE. ) );
#259 = MECHANICAL_DESIGN_GEOMETRIC_PRESENTATION_REPRESENTATION (  '', ( #220 ), #255 ) ;
#260 =( NAMED_UNIT ( * ) PLANE_ANGLE_UNIT ( ) SI_UNIT ( $, .RADIAN. ) );
#261 = UNCERTAINTY_MEASURE_WITH_UNIT (LENGTH_MEASURE( 1.000000000000000100E-005 ), #125, 'distance_accuracy_value', 'NONE');
ENDSEC;
END-ISO-10303-21;
