ISO-10303-21;
HEADER;
FILE_DESCRIPTION (( 'STEP AP203' ),
    '1' );
FILE_NAME ('Web Model 84487_48196.step',
    '2017-05-19T15:01:31',
    ( '' ),
    ( '' ),
    'SwSTEP 2.0',
    'SolidWorks 2016',
    '' );
FILE_SCHEMA (( 'CONFIG_CONTROL_DESIGN' ));
ENDSEC;

DATA;
#1 = APPROVAL_STATUS ( 'not_yet_approved' ) ;
#2 = AXIS2_PLACEMENT_3D ( 'NONE', #156, #113, #158 ) ;
#3 = PERSON_AND_ORGANIZATION ( #171, #122 ) ;
#4 = DATE_TIME_ROLE ( 'classification_date' ) ;
#5 = PERSON_AND_ORGANIZATION ( #171, #122 ) ;
#6 = AXIS2_PLACEMENT_3D ( 'NONE', #35, #59, #102 ) ;
#7 = CIRCLE ( 'NONE', #129, 12.50000000000000000 ) ;
#8 = CC_DESIGN_SECURITY_CLASSIFICATION ( #95, ( #151 ) ) ;
#9 = FACE_OUTER_BOUND ( 'NONE', #30, .T. ) ;
#10 = VERTEX_POINT ( 'NONE', #85 ) ;
#11 =( LENGTH_UNIT ( ) NAMED_UNIT ( * ) SI_UNIT ( .MILLI., .METRE. ) );
#12 = CIRCLE ( 'NONE', #2, 12.50000000000000000 ) ;
#13 = ADVANCED_FACE ( 'NONE', ( #9 ), #154, .T. ) ;
#14 =( NAMED_UNIT ( * ) SI_UNIT ( $, .STERADIAN. ) SOLID_ANGLE_UNIT ( ) );
#15 = DIRECTION ( 'NONE',  ( 1.000000000000000000, 0.0000000000000000000, -0.0000000000000000000 ) ) ;
#16 = DIRECTION ( 'NONE',  ( 0.0000000000000000000, 0.0000000000000000000, 1.000000000000000000 ) ) ;
#17 = DIRECTION ( 'NONE',  ( 1.000000000000000000, 0.0000000000000000000, 0.0000000000000000000 ) ) ;
#18 = EDGE_LOOP ( 'NONE', ( #126, #43 ) ) ;
#19 = PERSON_AND_ORGANIZATION ( #171, #122 ) ;
#20 = VERTEX_POINT ( 'NONE', #60 ) ;
#21 = PERSON_AND_ORGANIZATION ( #171, #122 ) ;
#22 = CIRCLE ( 'NONE', #68, 12.50000000000000000 ) ;
#23 = EDGE_CURVE ( 'NONE', #76, #10, #172, .T. ) ;
#24 = CALENDAR_DATE ( 2017, 19, 5 ) ;
#25 = EDGE_LOOP ( 'NONE', ( #173, #70, #33, #49 ) ) ;
#26 = ADVANCED_BREP_SHAPE_REPRESENTATION ( 'Web Model 84487_48196', ( #142, #137 ), #92 ) ;
#27 = PRODUCT_DEFINITION ( 'UNKNOWN', '', #151, #39 ) ;
#28 = LINE ( 'NONE', #170, #97 ) ;
#29 = APPROVAL_DATE_TIME ( #66, #67 ) ;
#30 = EDGE_LOOP ( 'NONE', ( #131, #168, #163, #78 ) ) ;
#31 = CARTESIAN_POINT ( 'NONE',  ( 0.0000000000000000000, 0.0000000000000000000, 0.0000000000000000000 ) ) ;
#32 = APPLICATION_PROTOCOL_DEFINITION ( 'international standard', 'config_control_design', 1994, #100 ) ;
#33 = ORIENTED_EDGE ( 'NONE', *, *, #111, .T. ) ;
#34 = PLANE ( 'NONE',  #37 ) ;
#35 = CARTESIAN_POINT ( 'NONE',  ( 0.0000000000000000000, 0.0000000000000000000, 2.000000000000000000 ) ) ;
#36 = PERSON_AND_ORGANIZATION_ROLE ( 'classification_officer' ) ;
#37 = AXIS2_PLACEMENT_3D ( 'NONE', #45, #82, #15 ) ;
#38 = ADVANCED_FACE ( 'NONE', ( #119 ), #157, .F. ) ;
#39 = DESIGN_CONTEXT ( 'detailed design', #83, 'design' ) ;
#40 = CC_DESIGN_PERSON_AND_ORGANIZATION_ASSIGNMENT ( #19, #132, ( #151 ) ) ;
#41 = CC_DESIGN_PERSON_AND_ORGANIZATION_ASSIGNMENT ( #61, #36, ( #95 ) ) ;
#42 = PERSON_AND_ORGANIZATION ( #171, #122 ) ;
#43 = ORIENTED_EDGE ( 'NONE', *, *, #111, .F. ) ;
#44 = DATE_AND_TIME ( #141, #118 ) ;
#45 = CARTESIAN_POINT ( 'NONE',  ( 0.0000000000000000000, 0.0000000000000000000, 2.000000000000000000 ) ) ;
#46 = CARTESIAN_POINT ( 'NONE',  ( 0.0000000000000000000, 0.0000000000000000000, 2.000000000000000000 ) ) ;
#47 = CARTESIAN_POINT ( 'NONE',  ( 0.0000000000000000000, 0.0000000000000000000, 0.0000000000000000000 ) ) ;
#48 = PERSON_AND_ORGANIZATION ( #171, #122 ) ;
#49 = ORIENTED_EDGE ( 'NONE', *, *, #87, .F. ) ;
#50 = SECURITY_CLASSIFICATION_LEVEL ( 'unclassified' ) ;
#51 = APPROVAL_DATE_TIME ( #44, #114 ) ;
#52 = VECTOR ( 'NONE', #121, 1000.000000000000000 ) ;
#53 = CC_DESIGN_PERSON_AND_ORGANIZATION_ASSIGNMENT ( #106, #64, ( #27 ) ) ;
#54 = EDGE_CURVE ( 'NONE', #20, #10, #12, .T. ) ;
#55 = CALENDAR_DATE ( 2017, 19, 5 ) ;
#56 = COORDINATED_UNIVERSAL_TIME_OFFSET ( 5, 0, .BEHIND. ) ;
#57 = DIRECTION ( 'NONE',  ( 1.000000000000000000, 0.0000000000000000000, 0.0000000000000000000 ) ) ;
#58 = CARTESIAN_POINT ( 'NONE',  ( -12.50000000000000000, 0.0000000000000000000, 2.000000000000000000 ) ) ;
#59 = DIRECTION ( 'NONE',  ( 0.0000000000000000000, 0.0000000000000000000, 1.000000000000000000 ) ) ;
#60 = CARTESIAN_POINT ( 'NONE',  ( -12.50000000000000000, 0.0000000000000000000, 0.0000000000000000000 ) ) ;
#61 = PERSON_AND_ORGANIZATION ( #171, #122 ) ;
#62 = SHAPE_DEFINITION_REPRESENTATION ( #136, #26 ) ;
#63 = DIRECTION ( 'NONE',  ( -0.0000000000000000000, -0.0000000000000000000, -1.000000000000000000 ) ) ;
#64 = PERSON_AND_ORGANIZATION_ROLE ( 'creator' ) ;
#65 = APPROVAL_STATUS ( 'not_yet_approved' ) ;
#66 = DATE_AND_TIME ( #24, #101 ) ;
#67 = APPROVAL ( #91, 'UNSPECIFIED' ) ;
#68 = AXIS2_PLACEMENT_3D ( 'NONE', #46, #174, #81 ) ;
#69 = COORDINATED_UNIVERSAL_TIME_OFFSET ( 5, 0, .BEHIND. ) ;
#70 = ORIENTED_EDGE ( 'NONE', *, *, #23, .T. ) ;
#71 = CC_DESIGN_PERSON_AND_ORGANIZATION_ASSIGNMENT ( #42, #115, ( #151 ) ) ;
#72 = PERSON_AND_ORGANIZATION_ROLE ( 'design_owner' ) ;
#73 = COORDINATED_UNIVERSAL_TIME_OFFSET ( 5, 0, .BEHIND. ) ;
#74 = DIRECTION ( 'NONE',  ( -0.0000000000000000000, -0.0000000000000000000, -1.000000000000000000 ) ) ;
#75 = DATE_TIME_ROLE ( 'creation_date' ) ;
#76 = VERTEX_POINT ( 'NONE', #128 ) ;
#77 = CC_DESIGN_PERSON_AND_ORGANIZATION_ASSIGNMENT ( #3, #72, ( #160 ) ) ;
#78 = ORIENTED_EDGE ( 'NONE', *, *, #54, .T. ) ;
#79 = CC_DESIGN_DATE_AND_TIME_ASSIGNMENT ( #116, #4, ( #95 ) ) ;
#80 = DATE_AND_TIME ( #55, #166 ) ;
#81 = DIRECTION ( 'NONE',  ( 1.000000000000000000, 0.0000000000000000000, 0.0000000000000000000 ) ) ;
#82 = DIRECTION ( 'NONE',  ( 0.0000000000000000000, 0.0000000000000000000, 1.000000000000000000 ) ) ;
#83 = APPLICATION_CONTEXT ( 'configuration controlled 3d designs of mechanical parts and assemblies' ) ;
#84 = CC_DESIGN_APPROVAL ( #114, ( #27 ) ) ;
#85 = CARTESIAN_POINT ( 'NONE',  ( 12.50000000000000000, 1.530808498934191500E-015, 0.0000000000000000000 ) ) ;
#86 = APPROVAL_ROLE ( '' ) ;
#87 = EDGE_CURVE ( 'NONE', #135, #20, #28, .T. ) ;
#88 = UNCERTAINTY_MEASURE_WITH_UNIT (LENGTH_MEASURE( 1.000000000000000100E-005 ), #11, 'distance_accuracy_value', 'NONE');
#89 = APPROVAL ( #1, 'UNSPECIFIED' ) ;
#90 = DATE_AND_TIME ( #96, #148 ) ;
#91 = APPROVAL_STATUS ( 'not_yet_approved' ) ;
#92 =( GEOMETRIC_REPRESENTATION_CONTEXT ( 3 ) GLOBAL_UNCERTAINTY_ASSIGNED_CONTEXT ( ( #88 ) ) GLOBAL_UNIT_ASSIGNED_CONTEXT ( ( #11, #112, #14 ) ) REPRESENTATION_CONTEXT ( 'NONE', 'WORKASPACE' ) );
#93 = ORIENTED_EDGE ( 'NONE', *, *, #98, .T. ) ;
#94 = CIRCLE ( 'NONE', #6, 12.50000000000000000 ) ;
#95 = SECURITY_CLASSIFICATION ( '', '', #50 ) ;
#96 = CALENDAR_DATE ( 2017, 19, 5 ) ;
#97 = VECTOR ( 'NONE', #63, 1000.000000000000000 ) ;
#98 = EDGE_CURVE ( 'NONE', #135, #76, #22, .T. ) ;
#99 = ADVANCED_FACE ( 'NONE', ( #134 ), #34, .T. ) ;
#100 = APPLICATION_CONTEXT ( 'configuration controlled 3d designs of mechanical parts and assemblies' ) ;
#101 = LOCAL_TIME ( 11, 1, 31.00000000000000000, #138 ) ;
#102 = DIRECTION ( 'NONE',  ( 1.000000000000000000, 0.0000000000000000000, 0.0000000000000000000 ) ) ;
#103 = CC_DESIGN_APPROVAL ( #89, ( #95 ) ) ;
#104 = APPROVAL_ROLE ( '' ) ;
#105 = APPROVAL_ROLE ( '' ) ;
#106 = PERSON_AND_ORGANIZATION ( #171, #122 ) ;
#107 = EDGE_LOOP ( 'NONE', ( #93, #150 ) ) ;
#108 = CARTESIAN_POINT ( 'NONE',  ( 12.50000000000000000, 1.530808498934191500E-015, 2.000000000000000000 ) ) ;
#109 = DIRECTION ( 'NONE',  ( 0.0000000000000000000, 0.0000000000000000000, 1.000000000000000000 ) ) ;
#110 = DIRECTION ( 'NONE',  ( -0.0000000000000000000, -0.0000000000000000000, -1.000000000000000000 ) ) ;
#111 = EDGE_CURVE ( 'NONE', #10, #20, #7, .T. ) ;
#112 =( NAMED_UNIT ( * ) PLANE_ANGLE_UNIT ( ) SI_UNIT ( $, .RADIAN. ) );
#113 = DIRECTION ( 'NONE',  ( 0.0000000000000000000, 0.0000000000000000000, 1.000000000000000000 ) ) ;
#114 = APPROVAL ( #65, 'UNSPECIFIED' ) ;
#115 = PERSON_AND_ORGANIZATION_ROLE ( 'creator' ) ;
#116 = DATE_AND_TIME ( #130, #124 ) ;
#117 = CLOSED_SHELL ( 'NONE', ( #144, #13, #99, #38 ) ) ;
#118 = LOCAL_TIME ( 11, 1, 31.00000000000000000, #73 ) ;
#119 = FACE_OUTER_BOUND ( 'NONE', #18, .T. ) ;
#120 = COORDINATED_UNIVERSAL_TIME_OFFSET ( 5, 0, .BEHIND. ) ;
#121 = DIRECTION ( 'NONE',  ( -0.0000000000000000000, -0.0000000000000000000, -1.000000000000000000 ) ) ;
#122 = ORGANIZATION ( 'UNSPECIFIED', 'UNSPECIFIED', '' ) ;
#123 = DIRECTION ( 'NONE',  ( -1.000000000000000000, 0.0000000000000000000, 0.0000000000000000000 ) ) ;
#124 = LOCAL_TIME ( 11, 1, 31.00000000000000000, #120 ) ;
#125 = CC_DESIGN_DATE_AND_TIME_ASSIGNMENT ( #80, #75, ( #27 ) ) ;
#126 = ORIENTED_EDGE ( 'NONE', *, *, #54, .F. ) ;
#127 = CARTESIAN_POINT ( 'NONE',  ( 0.0000000000000000000, 0.0000000000000000000, 0.0000000000000000000 ) ) ;
#128 = CARTESIAN_POINT ( 'NONE',  ( 12.50000000000000000, 1.530808498934191500E-015, 2.000000000000000000 ) ) ;
#129 = AXIS2_PLACEMENT_3D ( 'NONE', #31, #16, #17 ) ;
#130 = CALENDAR_DATE ( 2017, 19, 5 ) ;
#131 = ORIENTED_EDGE ( 'NONE', *, *, #23, .F. ) ;
#132 = PERSON_AND_ORGANIZATION_ROLE ( 'design_supplier' ) ;
#133 = EDGE_CURVE ( 'NONE', #76, #135, #94, .T. ) ;
#134 = FACE_OUTER_BOUND ( 'NONE', #107, .T. ) ;
#135 = VERTEX_POINT ( 'NONE', #58 ) ;
#136 = PRODUCT_DEFINITION_SHAPE ( 'NONE', 'NONE',  #27 ) ;
#137 = AXIS2_PLACEMENT_3D ( 'NONE', #127, #109, #57 ) ;
#138 = COORDINATED_UNIVERSAL_TIME_OFFSET ( 5, 0, .BEHIND. ) ;
#139 = DIRECTION ( 'NONE',  ( -1.000000000000000000, 0.0000000000000000000, 0.0000000000000000000 ) ) ;
#140 = MECHANICAL_CONTEXT ( 'NONE', #100, 'mechanical' ) ;
#141 = CALENDAR_DATE ( 2017, 19, 5 ) ;
#142 = MANIFOLD_SOLID_BREP ( 'Extrude1', #117 ) ;
#143 = DIRECTION ( 'NONE',  ( 1.000000000000000000, 0.0000000000000000000, -0.0000000000000000000 ) ) ;
#144 = ADVANCED_FACE ( 'NONE', ( #146 ), #153, .T. ) ;
#145 = CARTESIAN_POINT ( 'NONE',  ( 0.0000000000000000000, 0.0000000000000000000, 2.000000000000000000 ) ) ;
#146 = FACE_OUTER_BOUND ( 'NONE', #25, .T. ) ;
#147 = AXIS2_PLACEMENT_3D ( 'NONE', #169, #110, #123 ) ;
#148 = LOCAL_TIME ( 11, 1, 31.00000000000000000, #56 ) ;
#149 = APPROVAL_PERSON_ORGANIZATION ( #21, #114, #104 ) ;
#150 = ORIENTED_EDGE ( 'NONE', *, *, #133, .T. ) ;
#151 = PRODUCT_DEFINITION_FORMATION_WITH_SPECIFIED_SOURCE ( 'ANY', '', #160, .NOT_KNOWN. ) ;
#152 = APPROVAL_PERSON_ORGANIZATION ( #48, #67, #86 ) ;
#153 = CYLINDRICAL_SURFACE ( 'NONE', #167, 12.50000000000000000 ) ;
#154 = CYLINDRICAL_SURFACE ( 'NONE', #147, 12.50000000000000000 ) ;
#155 = PRODUCT_RELATED_PRODUCT_CATEGORY ( 'detail', '', ( #160 ) ) ;
#156 = CARTESIAN_POINT ( 'NONE',  ( 0.0000000000000000000, 0.0000000000000000000, 0.0000000000000000000 ) ) ;
#157 = PLANE ( 'NONE',  #165 ) ;
#158 = DIRECTION ( 'NONE',  ( 1.000000000000000000, 0.0000000000000000000, 0.0000000000000000000 ) ) ;
#159 = CC_DESIGN_APPROVAL ( #67, ( #151 ) ) ;
#160 = PRODUCT ( 'Web Model 84487_48196', 'Web Model 84487_48196', '', ( #140 ) ) ;
#161 = APPLICATION_PROTOCOL_DEFINITION ( 'international standard', 'config_control_design', 1994, #83 ) ;
#162 = APPROVAL_DATE_TIME ( #90, #89 ) ;
#163 = ORIENTED_EDGE ( 'NONE', *, *, #87, .T. ) ;
#164 = APPROVAL_PERSON_ORGANIZATION ( #5, #89, #105 ) ;
#165 = AXIS2_PLACEMENT_3D ( 'NONE', #47, #175, #143 ) ;
#166 = LOCAL_TIME ( 11, 1, 31.00000000000000000, #69 ) ;
#167 = AXIS2_PLACEMENT_3D ( 'NONE', #145, #74, #139 ) ;
#168 = ORIENTED_EDGE ( 'NONE', *, *, #98, .F. ) ;
#169 = CARTESIAN_POINT ( 'NONE',  ( 0.0000000000000000000, 0.0000000000000000000, 2.000000000000000000 ) ) ;
#170 = CARTESIAN_POINT ( 'NONE',  ( -12.50000000000000000, 0.0000000000000000000, 2.000000000000000000 ) ) ;
#171 = PERSON ( 'UNSPECIFIED', 'UNSPECIFIED', 'UNSPECIFIED', ('UNSPECIFIED'), ('UNSPECIFIED'), ('UNSPECIFIED') ) ;
#172 = LINE ( 'NONE', #108, #52 ) ;
#173 = ORIENTED_EDGE ( 'NONE', *, *, #133, .F. ) ;
#174 = DIRECTION ( 'NONE',  ( 0.0000000000000000000, 0.0000000000000000000, 1.000000000000000000 ) ) ;
#175 = DIRECTION ( 'NONE',  ( 0.0000000000000000000, 0.0000000000000000000, 1.000000000000000000 ) ) ;
ENDSEC;
END-ISO-10303-21;
