ISO-10303-21;
HEADER;
FILE_DESCRIPTION (( 'STEP AP203' ),
    '1' );
FILE_NAME ('21991-E0W.STEP',
    '2018-06-01T18:10:46',
    ( 'admin' ),
    ( '' ),
    'SwSTEP 2.0',
    'SolidWorks 2016',
    '' );
FILE_SCHEMA (( 'CONFIG_CONTROL_DESIGN' ));
ENDSEC;

DATA;
#1 = VERTEX_POINT ( 'NONE', #263 ) ;
#2 = PERSON_AND_ORGANIZATION_ROLE ( 'design_owner' ) ;
#3 = EDGE_LOOP ( 'NONE', ( #85, #261, #61, #54 ) ) ;
#4 = EDGE_CURVE ( 'NONE', #199, #96, #139, .T. ) ;
#5 = EDGE_LOOP ( 'NONE', ( #188, #150, #320, #27 ) ) ;
#6 = AXIS2_PLACEMENT_3D ( 'NONE', #313, #286, #323 ) ;
#7 = AXIS2_PLACEMENT_3D ( 'NONE', #181, #180, #179 ) ;
#8 = MECHANICAL_CONTEXT ( 'NONE', #245, 'mechanical' ) ;
#9 = APPLICATION_CONTEXT ( 'configuration controlled 3d designs of mechanical parts and assemblies' ) ;
#10 = DIRECTION ( 'NONE',  ( 1.000000000000000000, 0.0000000000000000000, 0.0000000000000000000 ) ) ;
#11 = ORIENTED_EDGE ( 'NONE', *, *, #236, .F. ) ;
#12 = APPROVAL_STATUS ( 'not_yet_approved' ) ;
#13 = FACE_OUTER_BOUND ( 'NONE', #5, .T. ) ;
#14 = CARTESIAN_POINT ( 'NONE',  ( 0.0000000000000000000, 0.0000000000000000000, 1.474995732477029300 ) ) ;
#15 = SECURITY_CLASSIFICATION ( '', '', #198 ) ;
#16 = ORIENTED_EDGE ( 'NONE', *, *, #98, .F. ) ;
#17 = DIRECTION ( 'NONE',  ( 0.0000000000000000000, -1.000000000000000000, -1.812963573987221600E-016 ) ) ;
#18 = AXIS2_PLACEMENT_3D ( 'NONE', #217, #29, #17 ) ;
#19 = PRODUCT_DEFINITION ( 'UNKNOWN', '', #307, #38 ) ;
#20 = EDGE_LOOP ( 'NONE', ( #300, #91, #162, #34 ) ) ;
#21 = DATE_AND_TIME ( #33, #271 ) ;
#22 = APPLICATION_PROTOCOL_DEFINITION ( 'international standard', 'config_control_design', 1994, #245 ) ;
#23 = EDGE_LOOP ( 'NONE', ( #114, #95, #11, #218 ) ) ;
#24 = EDGE_CURVE ( 'NONE', #1, #142, #294, .T. ) ;
#25 = DIRECTION ( 'NONE',  ( -0.0000000000000000000, -1.836909530733566100E-016, 1.000000000000000000 ) ) ;
#26 = CIRCLE ( 'NONE', #7, 0.4944322300693971300 ) ;
#27 = ORIENTED_EDGE ( 'NONE', *, *, #187, .T. ) ;
#28 = CARTESIAN_POINT ( 'NONE',  ( 0.0000000000000000000, 0.5000000000000000000, 0.09329996654337753500 ) ) ;
#29 = DIRECTION ( 'NONE',  ( -0.0000000000000000000, -1.836909530733565900E-016, 1.000000000000000000 ) ) ;
#30 = COORDINATED_UNIVERSAL_TIME_OFFSET ( 5, 0, .BEHIND. ) ;
#31 = FACE_OUTER_BOUND ( 'NONE', #264, .T. ) ;
#32 = CONICAL_SURFACE ( 'NONE', #285, 0.4944322300693971300, 0.7853981633974590500 ) ;
#33 = CALENDAR_DATE ( 2018, 1, 6 ) ;
#34 = ORIENTED_EDGE ( 'NONE', *, *, #187, .F. ) ;
#35 = PERSON_AND_ORGANIZATION ( #317, #207 ) ;
#36 =( NAMED_UNIT ( * ) SI_UNIT ( $, .STERADIAN. ) SOLID_ANGLE_UNIT ( ) );
#37 =( NAMED_UNIT ( * ) PLANE_ANGLE_UNIT ( ) SI_UNIT ( $, .RADIAN. ) );
#38 = DESIGN_CONTEXT ( 'detailed design', #9, 'design' ) ;
#39 = PERSON_AND_ORGANIZATION ( #317, #207 ) ;
#40 = PERSON_AND_ORGANIZATION ( #317, #207 ) ;
#41 = APPROVAL_PERSON_ORGANIZATION ( #40, #50, #237 ) ;
#42 = VECTOR ( 'NONE', #84, 39.37007874015748100 ) ;
#43 = AXIS2_PLACEMENT_3D ( 'NONE', #153, #88, #183 ) ;
#44 = FACE_OUTER_BOUND ( 'NONE', #269, .T. ) ;
#45 =( CONVERSION_BASED_UNIT ( 'INCH', #204 ) LENGTH_UNIT ( ) NAMED_UNIT ( #292 ) );
#46 = ORIENTED_EDGE ( 'NONE', *, *, #330, .T. ) ;
#47 = CIRCLE ( 'NONE', #89, 1.574803149606299300 ) ;
#48 = APPROVAL_ROLE ( '' ) ;
#49 =( LENGTH_UNIT ( ) NAMED_UNIT ( * ) SI_UNIT ( $, .METRE. ) );
#50 = APPROVAL ( #244, 'UNSPECIFIED' ) ;
#51 = DIRECTION ( 'NONE',  ( 1.224646799147353200E-016, 1.000000000000000000, 0.0000000000000000000 ) ) ;
#52 = DIRECTION ( 'NONE',  ( 1.000000000000000000, -1.224646799147353200E-016, -2.249565377136128000E-032 ) ) ;
#53 = FACE_OUTER_BOUND ( 'NONE', #305, .T. ) ;
#54 = ORIENTED_EDGE ( 'NONE', *, *, #59, .F. ) ;
#55 = ORIENTED_EDGE ( 'NONE', *, *, #236, .T. ) ;
#56 = APPROVAL_DATE_TIME ( #319, #308 ) ;
#57 = DIRECTION ( 'NONE',  ( -0.0000000000000000000, -1.836909530733565900E-016, 1.000000000000000000 ) ) ;
#58 = CARTESIAN_POINT ( 'NONE',  ( 0.0000000000000000000, 0.0000000000000000000, 1.474995732477029300 ) ) ;
#59 = EDGE_CURVE ( 'NONE', #142, #70, #277, .T. ) ;
#60 = FACE_OUTER_BOUND ( 'NONE', #20, .T. ) ;
#61 = ORIENTED_EDGE ( 'NONE', *, *, #223, .F. ) ;
#62 = FACE_OUTER_BOUND ( 'NONE', #265, .T. ) ;
#63 = ADVANCED_FACE ( 'NONE', ( #149 ), #128, .T. ) ;
#64 = CARTESIAN_POINT ( 'NONE',  ( 0.0000000000000000000, -7.567119171965986200E-018, 0.09886773647397985300 ) ) ;
#65 = CIRCLE ( 'NONE', #270, 0.4944322300693972400 ) ;
#66 = LINE ( 'NONE', #274, #86 ) ;
#67 = ORIENTED_EDGE ( 'NONE', *, *, #166, .F. ) ;
#68 = DIRECTION ( 'NONE',  ( 0.0000000000000000000, 0.0000000000000000000, 1.000000000000000000 ) ) ;
#69 = CARTESIAN_POINT ( 'NONE',  ( 0.0000000000000000000, 0.4944322300693980200, 0.09886773647398006100 ) ) ;
#70 = VERTEX_POINT ( 'NONE', #119 ) ;
#71 = PERSON_AND_ORGANIZATION ( #317, #207 ) ;
#72 = DIRECTION ( 'NONE',  ( 0.0000000000000000000, -1.000000000000000000, -1.812963573987221600E-016 ) ) ;
#73 = ORIENTED_EDGE ( 'NONE', *, *, #154, .T. ) ;
#74 = CARTESIAN_POINT ( 'NONE',  ( 6.123233995736766000E-017, 0.5000000000000000000, -0.01460930696208197400 ) ) ;
#75 =( GEOMETRIC_REPRESENTATION_CONTEXT ( 3 ) GLOBAL_UNCERTAINTY_ASSIGNED_CONTEXT ( ( #135 ) ) GLOBAL_UNIT_ASSIGNED_CONTEXT ( ( #45, #37, #36 ) ) REPRESENTATION_CONTEXT ( 'NONE', 'WORKASPACE' ) );
#76 = DATE_AND_TIME ( #100, #116 ) ;
#77 = DIRECTION ( 'NONE',  ( -0.0000000000000000000, -1.836909530733565900E-016, 1.000000000000000000 ) ) ;
#78 = COORDINATED_UNIVERSAL_TIME_OFFSET ( 5, 0, .BEHIND. ) ;
#79 = CC_DESIGN_SECURITY_CLASSIFICATION ( #15, ( #307 ) ) ;
#80 = CARTESIAN_POINT ( 'NONE',  ( 0.0000000000000000000, 1.430033605379650700E-017, -0.02017707689268482700 ) ) ;
#81 = PERSON_AND_ORGANIZATION ( #317, #207 ) ;
#82 = SPHERICAL_SURFACE ( 'NONE', #125, 2.987755905511811700 ) ;
#83 = PERSON_AND_ORGANIZATION ( #317, #207 ) ;
#84 = DIRECTION ( 'NONE',  ( -0.0000000000000000000, -1.836909530733566100E-016, 1.000000000000000000 ) ) ;
#85 = ORIENTED_EDGE ( 'NONE', *, *, #197, .T. ) ;
#86 = VECTOR ( 'NONE', #25, 39.37007874015748100 ) ;
#87 = EDGE_LOOP ( 'NONE', ( #185, #46, #134 ) ) ;
#88 = DIRECTION ( 'NONE',  ( -1.000000000000000000, 1.224646799147353200E-016, 2.249565377136128000E-032 ) ) ;
#89 = AXIS2_PLACEMENT_3D ( 'NONE', #58, #52, #51 ) ;
#90 = CONICAL_SURFACE ( 'NONE', #6, 0.5000000000000000000, 0.7853981633974789200 ) ;
#91 = ORIENTED_EDGE ( 'NONE', *, *, #143, .T. ) ;
#92 = CC_DESIGN_DATE_AND_TIME_ASSIGNMENT ( #76, #168, ( #19 ) ) ;
#93 = PERSON_AND_ORGANIZATION ( #317, #207 ) ;
#94 = ADVANCED_FACE ( 'NONE', ( #31 ), #82, .F. ) ;
#95 = ORIENTED_EDGE ( 'NONE', *, *, #160, .T. ) ;
#96 = VERTEX_POINT ( 'NONE', #189 ) ;
#97 = CARTESIAN_POINT ( 'NONE',  ( 0.0000000000000000000, 0.0000000000000000000, 1.474995732477029300 ) ) ;
#98 = EDGE_CURVE ( 'NONE', #102, #199, #247, .T. ) ;
#99 = CARTESIAN_POINT ( 'NONE',  ( 0.0000000000000000000, 0.0000000000000000000, 3.045428803343170900 ) ) ;
#100 = CALENDAR_DATE ( 2018, 1, 6 ) ;
#101 = CIRCLE ( 'NONE', #318, 0.4944322300693972400 ) ;
#102 = VERTEX_POINT ( 'NONE', #164 ) ;
#103 = ORIENTED_EDGE ( 'NONE', *, *, #24, .T. ) ;
#104 = DIRECTION ( 'NONE',  ( -0.0000000000000000000, -1.836909530733565900E-016, 1.000000000000000000 ) ) ;
#105 = ADVANCED_FACE ( 'NONE', ( #13 ), #310, .T. ) ;
#106 = PERSON_AND_ORGANIZATION_ROLE ( 'design_supplier' ) ;
#107 = CC_DESIGN_PERSON_AND_ORGANIZATION_ASSIGNMENT ( #71, #145, ( #307 ) ) ;
#108 = EDGE_CURVE ( 'NONE', #324, #199, #101, .T. ) ;
#109 = CARTESIAN_POINT ( 'NONE',  ( 0.0000000000000000000, 0.0000000000000000000, 0.05767289783135996800 ) ) ;
#110 = DIRECTION ( 'NONE',  ( 1.000000000000000000, 0.0000000000000000000, 0.0000000000000000000 ) ) ;
#111 = DIRECTION ( 'NONE',  ( 0.0000000000000000000, 0.7071067811865692200, -0.7071067811865257000 ) ) ;
#112 = APPROVAL_DATE_TIME ( #176, #50 ) ;
#113 = DIRECTION ( 'NONE',  ( 0.0000000000000000000, 1.000000000000000000, 1.828695569557439600E-016 ) ) ;
#114 = ORIENTED_EDGE ( 'NONE', *, *, #223, .T. ) ;
#115 = EDGE_CURVE ( 'NONE', #190, #142, #230, .T. ) ;
#116 = LOCAL_TIME ( 14, 10, 46.00000000000000000, #78 ) ;
#117 = ORIENTED_EDGE ( 'NONE', *, *, #115, .F. ) ;
#118 = CARTESIAN_POINT ( 'NONE',  ( 0.0000000000000000000, 0.0000000000000000000, 0.05767289783135996800 ) ) ;
#119 = CARTESIAN_POINT ( 'NONE',  ( 0.0000000000000000000, -0.5000000000000000000, -0.01460930696208215800 ) ) ;
#120 = EDGE_CURVE ( 'NONE', #324, #159, #232, .T. ) ;
#121 = CARTESIAN_POINT ( 'NONE',  ( 0.0000000000000000000, -0.5000000000000000000, 0.05767289783135987100 ) ) ;
#122 = VECTOR ( 'NONE', #148, 39.37007874015748100 ) ;
#123 = DIRECTION ( 'NONE',  ( 0.0000000000000000000, -1.000000000000000000, -1.707404996040164500E-016 ) ) ;
#124 = DIRECTION ( 'NONE',  ( -0.0000000000000000000, -1.836909530733565900E-016, 1.000000000000000000 ) ) ;
#125 = AXIS2_PLACEMENT_3D ( 'NONE', #99, #203, #113 ) ;
#126 = CARTESIAN_POINT ( 'NONE',  ( 0.0000000000000000000, -6.544370206920454500E-018, 0.09329996654337745200 ) ) ;
#127 = ORIENTED_EDGE ( 'NONE', *, *, #115, .T. ) ;
#128 = CYLINDRICAL_SURFACE ( 'NONE', #201, 0.5000000000000000000 ) ;
#129 = DIRECTION ( 'NONE',  ( -1.000000000000000000, 0.0000000000000000000, 0.0000000000000000000 ) ) ;
#130 = VECTOR ( 'NONE', #226, 39.37007874015748100 ) ;
#131 = DIRECTION ( 'NONE',  ( -0.0000000000000000000, -1.836909530733565900E-016, 1.000000000000000000 ) ) ;
#132 = AXIS2_PLACEMENT_3D ( 'NONE', #248, #68, #10 ) ;
#133 = CARTESIAN_POINT ( 'NONE',  ( 0.0000000000000000000, 0.0000000000000000000, 3.045428803343170900 ) ) ;
#134 = ORIENTED_EDGE ( 'NONE', *, *, #197, .F. ) ;
#135 = UNCERTAINTY_MEASURE_WITH_UNIT (LENGTH_MEASURE( 1.000000000000000100E-005 ), #45, 'distance_accuracy_value', 'NONE');
#136 = DIRECTION ( 'NONE',  ( 0.0000000000000000000, -1.000000000000000000, -1.734723475976807100E-016 ) ) ;
#137 = AXIS2_PLACEMENT_3D ( 'NONE', #126, #124, #123 ) ;
#138 = DIRECTION ( 'NONE',  ( 0.0000000000000000000, -1.000000000000000000, -1.835460370743176800E-016 ) ) ;
#139 = LINE ( 'NONE', #241, #122 ) ;
#140 = CARTESIAN_POINT ( 'NONE',  ( 0.0000000000000000000, 1.327758708875091000E-017, -0.01460930696208206600 ) ) ;
#141 = SPHERICAL_SURFACE ( 'NONE', #329, 1.574803149606299300 ) ;
#142 = VERTEX_POINT ( 'NONE', #327 ) ;
#143 = EDGE_CURVE ( 'NONE', #287, #70, #157, .T. ) ;
#144 = COORDINATED_UNIVERSAL_TIME_OFFSET ( 5, 0, .BEHIND. ) ;
#145 = PERSON_AND_ORGANIZATION_ROLE ( 'creator' ) ;
#146 = CYLINDRICAL_SURFACE ( 'NONE', #278, 0.5000000000000000000 ) ;
#147 = ORIENTED_EDGE ( 'NONE', *, *, #143, .F. ) ;
#148 = DIRECTION ( 'NONE',  ( 8.659560562355199100E-017, -0.7071067811865691100, -0.7071067811865260300 ) ) ;
#149 = FACE_OUTER_BOUND ( 'NONE', #23, .T. ) ;
#150 = ORIENTED_EDGE ( 'NONE', *, *, #108, .F. ) ;
#151 = CARTESIAN_POINT ( 'NONE',  ( 0.0000000000000000000, 0.0000000000000000000, 1.474995732477029300 ) ) ;
#152 = CARTESIAN_POINT ( 'NONE',  ( 0.0000000000000000000, -6.544370206920454500E-018, 0.09329996654337745200 ) ) ;
#153 = CARTESIAN_POINT ( 'NONE',  ( 0.0000000000000000000, 0.0000000000000000000, 3.045428803343170900 ) ) ;
#154 = EDGE_CURVE ( 'NONE', #102, #324, #216, .T. ) ;
#155 = ADVANCED_FACE ( 'NONE', ( #44 ), #90, .T. ) ;
#156 = ORIENTED_EDGE ( 'NONE', *, *, #120, .F. ) ;
#157 = CIRCLE ( 'NONE', #290, 0.5000000000000000000 ) ;
#158 = DIRECTION ( 'NONE',  ( 0.0000000000000000000, -1.000000000000000000, -1.878145495644180800E-016 ) ) ;
#159 = VERTEX_POINT ( 'NONE', #291 ) ;
#160 = EDGE_CURVE ( 'NONE', #287, #159, #66, .T. ) ;
#161 = CC_DESIGN_APPROVAL ( #50, ( #19 ) ) ;
#162 = ORIENTED_EDGE ( 'NONE', *, *, #259, .T. ) ;
#163 = CALENDAR_DATE ( 2018, 1, 6 ) ;
#164 = CARTESIAN_POINT ( 'NONE',  ( 0.0000000000000000000, 7.317710151499463600E-016, 0.05767289783135942600 ) ) ;
#165 = DIRECTION ( 'NONE',  ( 0.0000000000000000000, 1.000000000000000000, 1.707404996040164500E-016 ) ) ;
#166 = EDGE_CURVE ( 'NONE', #190, #287, #208, .T. ) ;
#167 = ORIENTED_EDGE ( 'NONE', *, *, #154, .F. ) ;
#168 = DATE_TIME_ROLE ( 'creation_date' ) ;
#169 = DIRECTION ( 'NONE',  ( 1.000000000000000000, 0.0000000000000000000, 0.0000000000000000000 ) ) ;
#170 = DIRECTION ( 'NONE',  ( 0.0000000000000000000, -1.000000000000000000, -1.726631975225924800E-016 ) ) ;
#171 = APPROVAL_PERSON_ORGANIZATION ( #39, #308, #225 ) ;
#172 = DIRECTION ( 'NONE',  ( -0.0000000000000000000, -1.836909530733565900E-016, 1.000000000000000000 ) ) ;
#173 = CC_DESIGN_APPROVAL ( #308, ( #307 ) ) ;
#174 = CARTESIAN_POINT ( 'NONE',  ( 0.0000000000000000000, -7.567119171965986200E-018, 0.09886773647397985300 ) ) ;
#175 = CALENDAR_DATE ( 2018, 1, 6 ) ;
#176 = DATE_AND_TIME ( #175, #191 ) ;
#177 = DIRECTION ( 'NONE',  ( 0.0000000000000000000, -1.000000000000000000, -1.812963573987221600E-016 ) ) ;
#178 = COORDINATED_UNIVERSAL_TIME_OFFSET ( 5, 0, .BEHIND. ) ;
#179 = DIRECTION ( 'NONE',  ( 0.0000000000000000000, -1.000000000000000000, -1.812963573987221600E-016 ) ) ;
#180 = DIRECTION ( 'NONE',  ( -0.0000000000000000000, -1.836909530733565900E-016, 1.000000000000000000 ) ) ;
#181 = CARTESIAN_POINT ( 'NONE',  ( 0.0000000000000000000, 1.430033605379650700E-017, -0.02017707689268482700 ) ) ;
#182 = FACE_OUTER_BOUND ( 'NONE', #3, .T. ) ;
#183 = DIRECTION ( 'NONE',  ( -1.224646799147353200E-016, -1.000000000000000000, 0.0000000000000000000 ) ) ;
#184 = DIRECTION ( 'NONE',  ( -0.0000000000000000000, -1.836909530733565900E-016, 1.000000000000000000 ) ) ;
#185 = ORIENTED_EDGE ( 'NONE', *, *, #24, .F. ) ;
#186 = EDGE_LOOP ( 'NONE', ( #167, #311, #295 ) ) ;
#187 = EDGE_CURVE ( 'NONE', #159, #96, #239, .T. ) ;
#188 = ORIENTED_EDGE ( 'NONE', *, *, #4, .F. ) ;
#189 = CARTESIAN_POINT ( 'NONE',  ( 0.0000000000000000000, -0.5000000000000000000, 0.09329996654337736900 ) ) ;
#190 = VERTEX_POINT ( 'NONE', #220 ) ;
#191 = LOCAL_TIME ( 14, 10, 46.00000000000000000, #238 ) ;
#192 = ORIENTED_EDGE ( 'NONE', *, *, #330, .F. ) ;
#193 = CC_DESIGN_DATE_AND_TIME_ASSIGNMENT ( #21, #214, ( #15 ) ) ;
#194 = APPROVAL_DATE_TIME ( #255, #298 ) ;
#195 = CC_DESIGN_PERSON_AND_ORGANIZATION_ASSIGNMENT ( #93, #235, ( #15 ) ) ;
#196 = DIRECTION ( 'NONE',  ( 0.0000000000000000000, -1.000000000000000000, -1.707404996040164500E-016 ) ) ;
#197 = EDGE_CURVE ( 'NONE', #142, #190, #26, .T. ) ;
#198 = SECURITY_CLASSIFICATION_LEVEL ( 'unclassified' ) ;
#199 = VERTEX_POINT ( 'NONE', #205 ) ;
#200 = DIRECTION ( 'NONE',  ( -0.0000000000000000000, -1.836909530733565900E-016, 1.000000000000000000 ) ) ;
#201 = AXIS2_PLACEMENT_3D ( 'NONE', #118, #77, #315 ) ;
#202 = ORIENTED_EDGE ( 'NONE', *, *, #108, .T. ) ;
#203 = DIRECTION ( 'NONE',  ( -1.000000000000000000, 0.0000000000000000000, 0.0000000000000000000 ) ) ;
#204 = LENGTH_MEASURE_WITH_UNIT ( LENGTH_MEASURE( 0.02539999999999999900 ), #49 );
#205 = CARTESIAN_POINT ( 'NONE',  ( -6.055048479497759400E-017, -0.4944322300693974000, 0.09886773647397999200 ) ) ;
#206 = SPHERICAL_SURFACE ( 'NONE', #326, 2.987755905511811700 ) ;
#207 = ORGANIZATION ( 'UNSPECIFIED', 'UNSPECIFIED', '' ) ;
#208 = LINE ( 'NONE', #228, #130 ) ;
#209 = VECTOR ( 'NONE', #258, 39.37007874015748100 ) ;
#210 = CIRCLE ( 'NONE', #280, 0.5000000000000000000 ) ;
#211 = CONICAL_SURFACE ( 'NONE', #252, 0.4944322300693971300, 0.7853981633974590500 ) ;
#212 = EDGE_CURVE ( 'NONE', #199, #324, #65, .T. ) ;
#213 = PERSON_AND_ORGANIZATION ( #317, #207 ) ;
#214 = DATE_TIME_ROLE ( 'classification_date' ) ;
#215 = CIRCLE ( 'NONE', #137, 0.5000000000000000000 ) ;
#216 = CIRCLE ( 'NONE', #282, 2.987755905511811700 ) ;
#217 = CARTESIAN_POINT ( 'NONE',  ( 0.0000000000000000000, 1.430033605379650700E-017, -0.02017707689268482700 ) ) ;
#218 = ORIENTED_EDGE ( 'NONE', *, *, #259, .F. ) ;
#219 = APPLICATION_PROTOCOL_DEFINITION ( 'international standard', 'config_control_design', 1994, #9 ) ;
#220 = CARTESIAN_POINT ( 'NONE',  ( 6.055048479497748300E-017, 0.4944322300693972400, -0.02017707689268476900 ) ) ;
#221 = AXIS2_PLACEMENT_3D ( 'NONE', #151, #169, #136 ) ;
#222 = ADVANCED_FACE ( 'NONE', ( #182 ), #211, .T. ) ;
#223 = EDGE_CURVE ( 'NONE', #70, #287, #210, .T. ) ;
#224 = CLOSED_SHELL ( 'NONE', ( #155, #63, #222, #272, #243, #94, #227, #314, #246, #105 ) ) ;
#225 = APPROVAL_ROLE ( '' ) ;
#226 = DIRECTION ( 'NONE',  ( 8.659560562355026500E-017, 0.7071067811865550100, 0.7071067811865400200 ) ) ;
#227 = ADVANCED_FACE ( 'NONE', ( #62 ), #251, .T. ) ;
#228 = CARTESIAN_POINT ( 'NONE',  ( 6.055048479497748300E-017, 0.4944322300693971300, -0.02017707689268473700 ) ) ;
#229 = SHAPE_DEFINITION_REPRESENTATION ( #234, #303 ) ;
#230 = CIRCLE ( 'NONE', #18, 0.4944322300693971300 ) ;
#231 = CC_DESIGN_PERSON_AND_ORGANIZATION_ASSIGNMENT ( #83, #253, ( #19 ) ) ;
#232 = LINE ( 'NONE', #28, #297 ) ;
#233 = FACE_OUTER_BOUND ( 'NONE', #186, .T. ) ;
#234 = PRODUCT_DEFINITION_SHAPE ( 'NONE', 'NONE',  #19 ) ;
#235 = PERSON_AND_ORGANIZATION_ROLE ( 'classification_officer' ) ;
#236 = EDGE_CURVE ( 'NONE', #96, #159, #215, .T. ) ;
#237 = APPROVAL_ROLE ( '' ) ;
#238 = COORDINATED_UNIVERSAL_TIME_OFFSET ( 5, 0, .BEHIND. ) ;
#239 = CIRCLE ( 'NONE', #322, 0.5000000000000000000 ) ;
#240 = ORIENTED_EDGE ( 'NONE', *, *, #59, .T. ) ;
#241 = CARTESIAN_POINT ( 'NONE',  ( 6.123233995736766000E-017, -0.5000000000000000000, 0.09329996654337736900 ) ) ;
#242 = MANIFOLD_SOLID_BREP ( '21991-001-1-solid1', #224 ) ;
#243 = ADVANCED_FACE ( 'NONE', ( #233 ), #206, .F. ) ;
#244 = APPROVAL_STATUS ( 'not_yet_approved' ) ;
#245 = APPLICATION_CONTEXT ( 'configuration controlled 3d designs of mechanical parts and assemblies' ) ;
#246 = ADVANCED_FACE ( 'NONE', ( #60 ), #146, .T. ) ;
#247 = CIRCLE ( 'NONE', #43, 2.987755905511811700 ) ;
#248 = CARTESIAN_POINT ( 'NONE',  ( 0.0000000000000000000, 0.0000000000000000000, 0.0000000000000000000 ) ) ;
#249 = DIRECTION ( 'NONE',  ( 0.0000000000000000000, -1.000000000000000000, -1.734723475976807100E-016 ) ) ;
#250 = PRODUCT_RELATED_PRODUCT_CATEGORY ( 'detail', '', ( #325 ) ) ;
#251 = SPHERICAL_SURFACE ( 'NONE', #221, 1.574803149606299300 ) ;
#252 = AXIS2_PLACEMENT_3D ( 'NONE', #266, #184, #177 ) ;
#253 = PERSON_AND_ORGANIZATION_ROLE ( 'creator' ) ;
#254 = LOCAL_TIME ( 14, 10, 46.00000000000000000, #178 ) ;
#255 = DATE_AND_TIME ( #299, #254 ) ;
#256 = DIRECTION ( 'NONE',  ( 0.0000000000000000000, 1.000000000000000000, 1.828695569557439600E-016 ) ) ;
#257 = LINE ( 'NONE', #121, #42 ) ;
#258 = DIRECTION ( 'NONE',  ( 0.0000000000000000000, -0.7071067811865552300, 0.7071067811865398000 ) ) ;
#259 = EDGE_CURVE ( 'NONE', #70, #96, #257, .T. ) ;
#260 = DIRECTION ( 'NONE',  ( 0.0000000000000000000, 0.0000000000000000000, 1.000000000000000000 ) ) ;
#261 = ORIENTED_EDGE ( 'NONE', *, *, #166, .T. ) ;
#262 = DIRECTION ( 'NONE',  ( -0.0000000000000000000, -1.836909530733565900E-016, 1.000000000000000000 ) ) ;
#263 = CARTESIAN_POINT ( 'NONE',  ( 0.0000000000000000000, 1.928482096314786200E-016, -0.09980741712927009000 ) ) ;
#264 = EDGE_LOOP ( 'NONE', ( #16, #73, #202 ) ) ;
#265 = EDGE_LOOP ( 'NONE', ( #192, #103, #117 ) ) ;
#266 = CARTESIAN_POINT ( 'NONE',  ( 0.0000000000000000000, 1.430033605379650700E-017, -0.02017707689268482700 ) ) ;
#267 = CARTESIAN_POINT ( 'NONE',  ( 0.0000000000000000000, -6.544370206920454500E-018, 0.09329996654337745200 ) ) ;
#268 = AXIS2_PLACEMENT_3D ( 'NONE', #152, #284, #165 ) ;
#269 = EDGE_LOOP ( 'NONE', ( #302, #283, #55, #156 ) ) ;
#270 = AXIS2_PLACEMENT_3D ( 'NONE', #174, #172, #170 ) ;
#271 = LOCAL_TIME ( 14, 10, 46.00000000000000000, #144 ) ;
#272 = ADVANCED_FACE ( 'NONE', ( #293 ), #141, .T. ) ;
#273 = LOCAL_TIME ( 14, 10, 46.00000000000000000, #30 ) ;
#274 = CARTESIAN_POINT ( 'NONE',  ( 6.123233995736766000E-017, 0.5000000000000000000, 0.05767289783136006500 ) ) ;
#275 = DIRECTION ( 'NONE',  ( 0.0000000000000000000, 0.0000000000000000000, -1.000000000000000000 ) ) ;
#276 = DIRECTION ( 'NONE',  ( 1.000000000000000000, 0.0000000000000000000, 0.0000000000000000000 ) ) ;
#277 = LINE ( 'NONE', #279, #209 ) ;
#278 = AXIS2_PLACEMENT_3D ( 'NONE', #109, #131, #158 ) ;
#279 = CARTESIAN_POINT ( 'NONE',  ( 0.0000000000000000000, -0.4944322300693971300, -0.02017707689268491800 ) ) ;
#280 = AXIS2_PLACEMENT_3D ( 'NONE', #140, #262, #138 ) ;
#281 = CARTESIAN_POINT ( 'NONE',  ( 0.0000000000000000000, 0.0000000000000000000, 3.045428803343170900 ) ) ;
#282 = AXIS2_PLACEMENT_3D ( 'NONE', #281, #276, #275 ) ;
#283 = ORIENTED_EDGE ( 'NONE', *, *, #4, .T. ) ;
#284 = DIRECTION ( 'NONE',  ( 0.0000000000000000000, 1.836909530733565900E-016, -1.000000000000000000 ) ) ;
#285 = AXIS2_PLACEMENT_3D ( 'NONE', #80, #104, #72 ) ;
#286 = DIRECTION ( 'NONE',  ( 0.0000000000000000000, 1.836909530733565900E-016, -1.000000000000000000 ) ) ;
#287 = VERTEX_POINT ( 'NONE', #74 ) ;
#288 = CC_DESIGN_PERSON_AND_ORGANIZATION_ASSIGNMENT ( #213, #106, ( #307 ) ) ;
#289 = DIRECTION ( 'NONE',  ( 0.0000000000000000000, -1.000000000000000000, -1.835460370743176800E-016 ) ) ;
#290 = AXIS2_PLACEMENT_3D ( 'NONE', #306, #304, #289 ) ;
#291 = CARTESIAN_POINT ( 'NONE',  ( 6.123233995736766000E-017, 0.5000000000000000000, 0.09329996654337753500 ) ) ;
#292 = DIMENSIONAL_EXPONENTS ( 1.000000000000000000, 0.0000000000000000000, 0.0000000000000000000, 0.0000000000000000000, 0.0000000000000000000, 0.0000000000000000000, 0.0000000000000000000 ) ;
#293 = FACE_OUTER_BOUND ( 'NONE', #87, .T. ) ;
#294 = CIRCLE ( 'NONE', #309, 1.574803149606299300 ) ;
#295 = ORIENTED_EDGE ( 'NONE', *, *, #212, .T. ) ;
#296 = DIRECTION ( 'NONE',  ( -1.000000000000000000, 0.0000000000000000000, -0.0000000000000000000 ) ) ;
#297 = VECTOR ( 'NONE', #111, 39.37007874015748900 ) ;
#298 = APPROVAL ( #12, 'UNSPECIFIED' ) ;
#299 = CALENDAR_DATE ( 2018, 1, 6 ) ;
#300 = ORIENTED_EDGE ( 'NONE', *, *, #160, .F. ) ;
#301 = APPROVAL_PERSON_ORGANIZATION ( #35, #298, #48 ) ;
#302 = ORIENTED_EDGE ( 'NONE', *, *, #212, .F. ) ;
#303 = ADVANCED_BREP_SHAPE_REPRESENTATION ( '21991-E0W', ( #242, #132 ), #75 ) ;
#304 = DIRECTION ( 'NONE',  ( -0.0000000000000000000, -1.836909530733565900E-016, 1.000000000000000000 ) ) ;
#305 = EDGE_LOOP ( 'NONE', ( #67, #127, #240, #147 ) ) ;
#306 = CARTESIAN_POINT ( 'NONE',  ( 0.0000000000000000000, 1.327758708875091000E-017, -0.01460930696208206600 ) ) ;
#307 = PRODUCT_DEFINITION_FORMATION_WITH_SPECIFIED_SOURCE ( 'ANY', '', #325, .NOT_KNOWN. ) ;
#308 = APPROVAL ( #316, 'UNSPECIFIED' ) ;
#309 = AXIS2_PLACEMENT_3D ( 'NONE', #14, #296, #260 ) ;
#310 = CONICAL_SURFACE ( 'NONE', #268, 0.5000000000000000000, 0.7853981633974789200 ) ;
#311 = ORIENTED_EDGE ( 'NONE', *, *, #98, .T. ) ;
#312 = CC_DESIGN_APPROVAL ( #298, ( #15 ) ) ;
#313 = CARTESIAN_POINT ( 'NONE',  ( 0.0000000000000000000, -6.544370206920454500E-018, 0.09329996654337745200 ) ) ;
#314 = ADVANCED_FACE ( 'NONE', ( #53 ), #32, .T. ) ;
#315 = DIRECTION ( 'NONE',  ( 0.0000000000000000000, -1.000000000000000000, -1.878145495644180800E-016 ) ) ;
#316 = APPROVAL_STATUS ( 'not_yet_approved' ) ;
#317 = PERSON ( 'UNSPECIFIED', 'UNSPECIFIED', 'UNSPECIFIED', ('UNSPECIFIED'), ('UNSPECIFIED'), ('UNSPECIFIED') ) ;
#318 = AXIS2_PLACEMENT_3D ( 'NONE', #64, #57, #321 ) ;
#319 = DATE_AND_TIME ( #163, #273 ) ;
#320 = ORIENTED_EDGE ( 'NONE', *, *, #120, .T. ) ;
#321 = DIRECTION ( 'NONE',  ( 0.0000000000000000000, -1.000000000000000000, -1.726631975225924800E-016 ) ) ;
#322 = AXIS2_PLACEMENT_3D ( 'NONE', #267, #200, #196 ) ;
#323 = DIRECTION ( 'NONE',  ( 0.0000000000000000000, 1.000000000000000000, 1.707404996040164500E-016 ) ) ;
#324 = VERTEX_POINT ( 'NONE', #69 ) ;
#325 = PRODUCT ( '21991-E0W', '21991-E0W', '', ( #8 ) ) ;
#326 = AXIS2_PLACEMENT_3D ( 'NONE', #133, #129, #256 ) ;
#327 = CARTESIAN_POINT ( 'NONE',  ( 0.0000000000000000000, -0.4944322300693969600, -0.02017707689268486200 ) ) ;
#328 = CC_DESIGN_PERSON_AND_ORGANIZATION_ASSIGNMENT ( #81, #2, ( #325 ) ) ;
#329 = AXIS2_PLACEMENT_3D ( 'NONE', #97, #110, #249 ) ;
#330 = EDGE_CURVE ( 'NONE', #1, #190, #47, .T. ) ;
ENDSEC;
END-ISO-10303-21;
