ISO-10303-21;
HEADER;
FILE_DESCRIPTION (( 'STEP AP203' ),
    '1' );
FILE_NAME ('Web Model 14957_14957.step',
    '2020-07-27T18:28:40',
    ( '' ),
    ( '' ),
    'SwSTEP 2.0',
    'SolidWorks 2018',
    '' );
FILE_SCHEMA (( 'CONFIG_CONTROL_DESIGN' ));
ENDSEC;

DATA;
#1 = DIRECTION ( 'NONE',  ( 0.0000000000000000000, 0.0000000000000000000, 1.000000000000000000 ) ) ;
#2 = AXIS2_PLACEMENT_3D ( 'NONE', #97, #63, #60 ) ;
#3 = LOCAL_TIME ( 14, 28, 40.00000000000000000, #151 ) ;
#4 = DATE_AND_TIME ( #160, #94 ) ;
#5 = VERTEX_POINT ( 'NONE', #100 ) ;
#6 = AXIS2_PLACEMENT_3D ( 'NONE', #9, #35, #50 ) ;
#7 = FACE_OUTER_BOUND ( 'NONE', #80, .T. ) ;
#8 = ORIENTED_EDGE ( 'NONE', *, *, #28, .F. ) ;
#9 = CARTESIAN_POINT ( 'NONE',  ( -1.000000000000000000, 0.0000000000000000000, 0.0000000000000000000 ) ) ;
#10 = DIRECTION ( 'NONE',  ( -1.000000000000000000, -0.0000000000000000000, -0.0000000000000000000 ) ) ;
#11 = APPROVAL ( #159, 'UNSPECIFIED' ) ;
#12 = CARTESIAN_POINT ( 'NONE',  ( 1.000000000000000000, 0.0000000000000000000, 5.000000000000000000 ) ) ;
#13 = LOCAL_TIME ( 14, 28, 40.00000000000000000, #56 ) ;
#14 = EDGE_CURVE ( 'NONE', #5, #154, #110, .T. ) ;
#15 = PERSON_AND_ORGANIZATION ( #111, #58 ) ;
#16 = CIRCLE ( 'NONE', #155, 5.000000000000000000 ) ;
#17 = APPROVAL_STATUS ( 'not_yet_approved' ) ;
#18 = PRODUCT_DEFINITION_FORMATION_WITH_SPECIFIED_SOURCE ( 'ANY', '', #101, .NOT_KNOWN. ) ;
#19 = CARTESIAN_POINT ( 'NONE',  ( 1.000000000000000000, 0.0000000000000000000, 0.0000000000000000000 ) ) ;
#20 = CLOSED_SHELL ( 'NONE', ( #57, #167, #88, #42 ) ) ;
#21 = CARTESIAN_POINT ( 'NONE',  ( 1.000000000000000000, 6.123233995736766282E-16, -5.000000000000000000 ) ) ;
#22 = CC_DESIGN_PERSON_AND_ORGANIZATION_ASSIGNMENT ( #15, #52, ( #101 ) ) ;
#23 = APPROVAL_PERSON_ORGANIZATION ( #139, #91, #149 ) ;
#24 = CC_DESIGN_SECURITY_CLASSIFICATION ( #135, ( #18 ) ) ;
#25 = ORIENTED_EDGE ( 'NONE', *, *, #158, .F. ) ;
#26 = CC_DESIGN_PERSON_AND_ORGANIZATION_ASSIGNMENT ( #34, #147, ( #18 ) ) ;
#27 = CALENDAR_DATE ( 2020, 27, 7 ) ;
#28 = EDGE_CURVE ( 'NONE', #75, #5, #105, .T. ) ;
#29 = AXIS2_PLACEMENT_3D ( 'NONE', #19, #10, #31 ) ;
#30 = ORIENTED_EDGE ( 'NONE', *, *, #158, .T. ) ;
#31 = DIRECTION ( 'NONE',  ( 0.0000000000000000000, 0.0000000000000000000, 1.000000000000000000 ) ) ;
#32 = DIRECTION ( 'NONE',  ( 0.0000000000000000000, 0.0000000000000000000, -1.000000000000000000 ) ) ;
#33 = APPLICATION_CONTEXT ( 'configuration controlled 3d designs of mechanical parts and assemblies' ) ;
#34 = PERSON_AND_ORGANIZATION ( #111, #58 ) ;
#35 = DIRECTION ( 'NONE',  ( 1.000000000000000000, 0.0000000000000000000, 0.0000000000000000000 ) ) ;
#36 = CC_DESIGN_PERSON_AND_ORGANIZATION_ASSIGNMENT ( #133, #81, ( #18 ) ) ;
#37 = EDGE_LOOP ( 'NONE', ( #8, #140, #148, #49 ) ) ;
#38 = PLANE ( 'NONE',  #141 ) ;
#39 = DIRECTION ( 'NONE',  ( -1.000000000000000000, -0.0000000000000000000, -0.0000000000000000000 ) ) ;
#40 = ORIENTED_EDGE ( 'NONE', *, *, #28, .T. ) ;
#41 = APPROVAL_DATE_TIME ( #142, #143 ) ;
#42 = ADVANCED_FACE ( 'NONE', ( #62 ), #53, .F. ) ;
#43 = APPROVAL_PERSON_ORGANIZATION ( #83, #143, #115 ) ;
#44 = ORIENTED_EDGE ( 'NONE', *, *, #122, .F. ) ;
#45 = DATE_AND_TIME ( #168, #13 ) ;
#46 =( NAMED_UNIT ( * ) SI_UNIT ( $, .STERADIAN. ) SOLID_ANGLE_UNIT ( ) );
#47 =( LENGTH_UNIT ( ) NAMED_UNIT ( * ) SI_UNIT ( .MILLI., .METRE. ) );
#48 = LINE ( 'NONE', #170, #72 ) ;
#49 = ORIENTED_EDGE ( 'NONE', *, *, #14, .F. ) ;
#50 = DIRECTION ( 'NONE',  ( 0.0000000000000000000, 0.0000000000000000000, -1.000000000000000000 ) ) ;
#51 = APPLICATION_CONTEXT ( 'configuration controlled 3d designs of mechanical parts and assemblies' ) ;
#52 = PERSON_AND_ORGANIZATION_ROLE ( 'design_owner' ) ;
#53 = PLANE ( 'NONE',  #93 ) ;
#54 = CC_DESIGN_PERSON_AND_ORGANIZATION_ASSIGNMENT ( #107, #77, ( #120 ) ) ;
#55 = CARTESIAN_POINT ( 'NONE',  ( -1.000000000000000000, 0.0000000000000000000, 0.0000000000000000000 ) ) ;
#56 = COORDINATED_UNIVERSAL_TIME_OFFSET ( 5, 0, .BEHIND. ) ;
#57 = ADVANCED_FACE ( 'NONE', ( #125 ), #103, .T. ) ;
#58 = ORGANIZATION ( 'UNSPECIFIED', 'UNSPECIFIED', '' ) ;
#59 = ORIENTED_EDGE ( 'NONE', *, *, #14, .T. ) ;
#60 = DIRECTION ( 'NONE',  ( 1.000000000000000000, 0.0000000000000000000, 0.0000000000000000000 ) ) ;
#61 = CC_DESIGN_APPROVAL ( #91, ( #18 ) ) ;
#62 = FACE_OUTER_BOUND ( 'NONE', #114, .T. ) ;
#63 = DIRECTION ( 'NONE',  ( 0.0000000000000000000, 0.0000000000000000000, 1.000000000000000000 ) ) ;
#64 = SECURITY_CLASSIFICATION_LEVEL ( 'unclassified' ) ;
#65 = DATE_AND_TIME ( #157, #89 ) ;
#66 = AXIS2_PLACEMENT_3D ( 'NONE', #165, #39, #1 ) ;
#67 = DIRECTION ( 'NONE',  ( 0.0000000000000000000, 0.0000000000000000000, -1.000000000000000000 ) ) ;
#68 = FACE_OUTER_BOUND ( 'NONE', #86, .T. ) ;
#69 = UNCERTAINTY_MEASURE_WITH_UNIT (LENGTH_MEASURE( 1.000000000000000082E-05 ), #47, 'distance_accuracy_value', 'NONE');
#70 = PERSON_AND_ORGANIZATION ( #111, #58 ) ;
#71 = LOCAL_TIME ( 14, 28, 40.00000000000000000, #153 ) ;
#72 = VECTOR ( 'NONE', #172, 1000.000000000000000 ) ;
#73 = APPROVAL_DATE_TIME ( #82, #91 ) ;
#74 = AXIS2_PLACEMENT_3D ( 'NONE', #113, #98, #175 ) ;
#75 = VERTEX_POINT ( 'NONE', #21 ) ;
#76 = DIRECTION ( 'NONE',  ( 1.000000000000000000, 0.0000000000000000000, 0.0000000000000000000 ) ) ;
#77 = PERSON_AND_ORGANIZATION_ROLE ( 'creator' ) ;
#78 = EDGE_CURVE ( 'NONE', #129, #154, #16, .T. ) ;
#79 = CARTESIAN_POINT ( 'NONE',  ( -1.000000000000000000, 6.123233995736766282E-16, -5.000000000000000000 ) ) ;
#80 = EDGE_LOOP ( 'NONE', ( #144, #40 ) ) ;
#81 = PERSON_AND_ORGANIZATION_ROLE ( 'design_supplier' ) ;
#82 = DATE_AND_TIME ( #123, #71 ) ;
#83 = PERSON_AND_ORGANIZATION ( #111, #58 ) ;
#84 = CARTESIAN_POINT ( 'NONE',  ( 1.000000000000000000, 0.0000000000000000000, 0.0000000000000000000 ) ) ;
#85 = CARTESIAN_POINT ( 'NONE',  ( -1.000000000000000000, 0.0000000000000000000, 0.0000000000000000000 ) ) ;
#86 = EDGE_LOOP ( 'NONE', ( #44, #119, #59, #30 ) ) ;
#87 = MANIFOLD_SOLID_BREP ( 'Boss-Extrude1', #20 ) ;
#88 = ADVANCED_FACE ( 'NONE', ( #7 ), #38, .T. ) ;
#89 = LOCAL_TIME ( 14, 28, 40.00000000000000000, #128 ) ;
#90 = PRODUCT_RELATED_PRODUCT_CATEGORY ( 'detail', '', ( #101 ) ) ;
#91 = APPROVAL ( #17, 'UNSPECIFIED' ) ;
#92 = PERSON_AND_ORGANIZATION ( #111, #58 ) ;
#93 = AXIS2_PLACEMENT_3D ( 'NONE', #85, #117, #164 ) ;
#94 = LOCAL_TIME ( 14, 28, 40.00000000000000000, #169 ) ;
#95 = APPROVAL_STATUS ( 'not_yet_approved' ) ;
#96 = DESIGN_CONTEXT ( 'detailed design', #51, 'design' ) ;
#97 = CARTESIAN_POINT ( 'NONE',  ( 0.0000000000000000000, 0.0000000000000000000, 0.0000000000000000000 ) ) ;
#98 = DIRECTION ( 'NONE',  ( 1.000000000000000000, 0.0000000000000000000, 0.0000000000000000000 ) ) ;
#99 = CC_DESIGN_PERSON_AND_ORGANIZATION_ASSIGNMENT ( #70, #124, ( #135 ) ) ;
#100 = CARTESIAN_POINT ( 'NONE',  ( 1.000000000000000000, 0.0000000000000000000, 5.000000000000000000 ) ) ;
#101 = PRODUCT ( 'Web Model 14957_14957', 'Web Model 14957_14957', '', ( #138 ) ) ;
#102 = CARTESIAN_POINT ( 'NONE',  ( 1.000000000000000000, 0.0000000000000000000, 0.0000000000000000000 ) ) ;
#103 = CYLINDRICAL_SURFACE ( 'NONE', #66, 5.000000000000000000 ) ;
#104 = CIRCLE ( 'NONE', #6, 5.000000000000000000 ) ;
#105 = CIRCLE ( 'NONE', #130, 5.000000000000000000 ) ;
#106 =( GEOMETRIC_REPRESENTATION_CONTEXT ( 3 ) GLOBAL_UNCERTAINTY_ASSIGNED_CONTEXT ( ( #69 ) ) GLOBAL_UNIT_ASSIGNED_CONTEXT ( ( #47, #146, #46 ) ) REPRESENTATION_CONTEXT ( 'NONE', 'WORKASPACE' ) );
#107 = PERSON_AND_ORGANIZATION ( #111, #58 ) ;
#108 = ADVANCED_BREP_SHAPE_REPRESENTATION ( 'Web Model 14957_14957', ( #87, #2 ), #106 ) ;
#109 = CC_DESIGN_DATE_AND_TIME_ASSIGNMENT ( #45, #162, ( #135 ) ) ;
#110 = LINE ( 'NONE', #12, #137 ) ;
#111 = PERSON ( 'UNSPECIFIED', 'UNSPECIFIED', 'UNSPECIFIED', ('UNSPECIFIED'), ('UNSPECIFIED'), ('UNSPECIFIED') ) ;
#112 = APPLICATION_PROTOCOL_DEFINITION ( 'international standard', 'config_control_design', 1994, #33 ) ;
#113 = CARTESIAN_POINT ( 'NONE',  ( 1.000000000000000000, 0.0000000000000000000, 0.0000000000000000000 ) ) ;
#114 = EDGE_LOOP ( 'NONE', ( #25, #126 ) ) ;
#115 = APPROVAL_ROLE ( '' ) ;
#116 = CARTESIAN_POINT ( 'NONE',  ( -1.000000000000000000, 0.0000000000000000000, 5.000000000000000000 ) ) ;
#117 = DIRECTION ( 'NONE',  ( 1.000000000000000000, 0.0000000000000000000, 0.0000000000000000000 ) ) ;
#118 = DIRECTION ( 'NONE',  ( -1.000000000000000000, -0.0000000000000000000, -0.0000000000000000000 ) ) ;
#119 = ORIENTED_EDGE ( 'NONE', *, *, #134, .F. ) ;
#120 = PRODUCT_DEFINITION ( 'UNKNOWN', '', #18, #96 ) ;
#121 = SHAPE_DEFINITION_REPRESENTATION ( #132, #108 ) ;
#122 = EDGE_CURVE ( 'NONE', #75, #129, #48, .T. ) ;
#123 = CALENDAR_DATE ( 2020, 27, 7 ) ;
#124 = PERSON_AND_ORGANIZATION_ROLE ( 'classification_officer' ) ;
#125 = FACE_OUTER_BOUND ( 'NONE', #37, .T. ) ;
#126 = ORIENTED_EDGE ( 'NONE', *, *, #78, .F. ) ;
#127 = APPROVAL_ROLE ( '' ) ;
#128 = COORDINATED_UNIVERSAL_TIME_OFFSET ( 5, 0, .BEHIND. ) ;
#129 = VERTEX_POINT ( 'NONE', #79 ) ;
#130 = AXIS2_PLACEMENT_3D ( 'NONE', #102, #152, #67 ) ;
#131 = CC_DESIGN_DATE_AND_TIME_ASSIGNMENT ( #65, #171, ( #120 ) ) ;
#132 = PRODUCT_DEFINITION_SHAPE ( 'NONE', 'NONE',  #120 ) ;
#133 = PERSON_AND_ORGANIZATION ( #111, #58 ) ;
#134 = EDGE_CURVE ( 'NONE', #5, #75, #163, .T. ) ;
#135 = SECURITY_CLASSIFICATION ( '', '', #64 ) ;
#136 = CYLINDRICAL_SURFACE ( 'NONE', #29, 5.000000000000000000 ) ;
#137 = VECTOR ( 'NONE', #118, 1000.000000000000000 ) ;
#138 = MECHANICAL_CONTEXT ( 'NONE', #33, 'mechanical' ) ;
#139 = PERSON_AND_ORGANIZATION ( #111, #58 ) ;
#140 = ORIENTED_EDGE ( 'NONE', *, *, #122, .T. ) ;
#141 = AXIS2_PLACEMENT_3D ( 'NONE', #84, #76, #161 ) ;
#142 = DATE_AND_TIME ( #27, #3 ) ;
#143 = APPROVAL ( #95, 'UNSPECIFIED' ) ;
#144 = ORIENTED_EDGE ( 'NONE', *, *, #134, .T. ) ;
#145 = APPLICATION_PROTOCOL_DEFINITION ( 'international standard', 'config_control_design', 1994, #51 ) ;
#146 =( NAMED_UNIT ( * ) PLANE_ANGLE_UNIT ( ) SI_UNIT ( $, .RADIAN. ) );
#147 = PERSON_AND_ORGANIZATION_ROLE ( 'creator' ) ;
#148 = ORIENTED_EDGE ( 'NONE', *, *, #78, .T. ) ;
#149 = APPROVAL_ROLE ( '' ) ;
#150 = CC_DESIGN_APPROVAL ( #143, ( #135 ) ) ;
#151 = COORDINATED_UNIVERSAL_TIME_OFFSET ( 5, 0, .BEHIND. ) ;
#152 = DIRECTION ( 'NONE',  ( 1.000000000000000000, 0.0000000000000000000, 0.0000000000000000000 ) ) ;
#153 = COORDINATED_UNIVERSAL_TIME_OFFSET ( 5, 0, .BEHIND. ) ;
#154 = VERTEX_POINT ( 'NONE', #116 ) ;
#155 = AXIS2_PLACEMENT_3D ( 'NONE', #55, #173, #32 ) ;
#156 = CC_DESIGN_APPROVAL ( #11, ( #120 ) ) ;
#157 = CALENDAR_DATE ( 2020, 27, 7 ) ;
#158 = EDGE_CURVE ( 'NONE', #154, #129, #104, .T. ) ;
#159 = APPROVAL_STATUS ( 'not_yet_approved' ) ;
#160 = CALENDAR_DATE ( 2020, 27, 7 ) ;
#161 = DIRECTION ( 'NONE',  ( 0.0000000000000000000, 0.0000000000000000000, -1.000000000000000000 ) ) ;
#162 = DATE_TIME_ROLE ( 'classification_date' ) ;
#163 = CIRCLE ( 'NONE', #74, 5.000000000000000000 ) ;
#164 = DIRECTION ( 'NONE',  ( 0.0000000000000000000, 0.0000000000000000000, -1.000000000000000000 ) ) ;
#165 = CARTESIAN_POINT ( 'NONE',  ( 1.000000000000000000, 0.0000000000000000000, 0.0000000000000000000 ) ) ;
#166 = APPROVAL_PERSON_ORGANIZATION ( #92, #11, #127 ) ;
#167 = ADVANCED_FACE ( 'NONE', ( #68 ), #136, .T. ) ;
#168 = CALENDAR_DATE ( 2020, 27, 7 ) ;
#169 = COORDINATED_UNIVERSAL_TIME_OFFSET ( 5, 0, .BEHIND. ) ;
#170 = CARTESIAN_POINT ( 'NONE',  ( 1.000000000000000000, 6.123233995736766282E-16, -5.000000000000000000 ) ) ;
#171 = DATE_TIME_ROLE ( 'creation_date' ) ;
#172 = DIRECTION ( 'NONE',  ( -1.000000000000000000, -0.0000000000000000000, -0.0000000000000000000 ) ) ;
#173 = DIRECTION ( 'NONE',  ( 1.000000000000000000, 0.0000000000000000000, 0.0000000000000000000 ) ) ;
#174 = APPROVAL_DATE_TIME ( #4, #11 ) ;
#175 = DIRECTION ( 'NONE',  ( 0.0000000000000000000, 0.0000000000000000000, -1.000000000000000000 ) ) ;
ENDSEC;
END-ISO-10303-21;
