ISO-10303-21;
HEADER;
FILE_DESCRIPTION (( 'STEP AP203' ),
    '1' );
FILE_NAME ('Web Model 11874_11874.step',
    '2020-10-07T17:15:09',
    ( '' ),
    ( '' ),
    'SwSTEP 2.0',
    'SolidWorks 2018',
    '' );
FILE_SCHEMA (( 'CONFIG_CONTROL_DESIGN' ));
ENDSEC;

DATA;
#1 = ADVANCED_BREP_SHAPE_REPRESENTATION ( 'Web Model 11874_11874', ( #83, #53 ), #80 ) ;
#2 = PERSON ( 'UNSPECIFIED', 'UNSPECIFIED', 'UNSPECIFIED', ('UNSPECIFIED'), ('UNSPECIFIED'), ('UNSPECIFIED') ) ;
#3 = COORDINATED_UNIVERSAL_TIME_OFFSET ( 5, 0, .BEHIND. ) ;
#4 = UNCERTAINTY_MEASURE_WITH_UNIT (LENGTH_MEASURE( 1.000000000000000082E-05 ), #94, 'distance_accuracy_value', 'NONE');
#5 = CARTESIAN_POINT ( 'NONE',  ( 0.0000000000000000000, 0.0000000000000000000, 0.0000000000000000000 ) ) ;
#6 = PERSON_AND_ORGANIZATION ( #2, #22 ) ;
#7 = DATE_AND_TIME ( #36, #70 ) ;
#8 = EDGE_CURVE ( 'NONE', #168, #173, #97, .T. ) ;
#9 = DIRECTION ( 'NONE',  ( -0.0000000000000000000, -0.0000000000000000000, -1.000000000000000000 ) ) ;
#10 = CIRCLE ( 'NONE', #125, 12.69999999999999929 ) ;
#11 = LOCAL_TIME ( 13, 15, 9.000000000000000000, #82 ) ;
#12 = DIRECTION ( 'NONE',  ( -0.0000000000000000000, -0.0000000000000000000, -1.000000000000000000 ) ) ;
#13 = ORIENTED_EDGE ( 'NONE', *, *, #100, .T. ) ;
#14 = APPLICATION_CONTEXT ( 'configuration controlled 3d designs of mechanical parts and assemblies' ) ;
#15 =( NAMED_UNIT ( * ) SI_UNIT ( $, .STERADIAN. ) SOLID_ANGLE_UNIT ( ) );
#16 = PRODUCT_DEFINITION_FORMATION_WITH_SPECIFIED_SOURCE ( 'ANY', '', #56, .NOT_KNOWN. ) ;
#17 = ORIENTED_EDGE ( 'NONE', *, *, #8, .F. ) ;
#18 = DIRECTION ( 'NONE',  ( 1.000000000000000000, 0.0000000000000000000, 0.0000000000000000000 ) ) ;
#19 = CARTESIAN_POINT ( 'NONE',  ( 0.0000000000000000000, 0.0000000000000000000, 1.500000000000000000 ) ) ;
#20 = DATE_AND_TIME ( #130, #166 ) ;
#21 = LOCAL_TIME ( 13, 15, 9.000000000000000000, #3 ) ;
#22 = ORGANIZATION ( 'UNSPECIFIED', 'UNSPECIFIED', '' ) ;
#23 = CC_DESIGN_PERSON_AND_ORGANIZATION_ASSIGNMENT ( #142, #129, ( #147 ) ) ;
#24 = APPROVAL_STATUS ( 'not_yet_approved' ) ;
#25 = PERSON_AND_ORGANIZATION ( #2, #22 ) ;
#26 = VECTOR ( 'NONE', #73, 1000.000000000000000 ) ;
#27 = DIRECTION ( 'NONE',  ( 0.0000000000000000000, 0.0000000000000000000, 1.000000000000000000 ) ) ;
#28 = CARTESIAN_POINT ( 'NONE',  ( -12.69999999999999929, 0.0000000000000000000, -1.500000000000000000 ) ) ;
#29 = DIRECTION ( 'NONE',  ( 0.0000000000000000000, 0.0000000000000000000, 1.000000000000000000 ) ) ;
#30 = CALENDAR_DATE ( 2020, 7, 10 ) ;
#31 = APPROVAL_DATE_TIME ( #58, #114 ) ;
#32 = FACE_OUTER_BOUND ( 'NONE', #85, .T. ) ;
#33 = APPROVAL_PERSON_ORGANIZATION ( #6, #114, #61 ) ;
#34 = ORIENTED_EDGE ( 'NONE', *, *, #88, .T. ) ;
#35 = ORIENTED_EDGE ( 'NONE', *, *, #109, .T. ) ;
#36 = CALENDAR_DATE ( 2020, 7, 10 ) ;
#37 = PLANE ( 'NONE',  #115 ) ;
#38 = CALENDAR_DATE ( 2020, 7, 10 ) ;
#39 = DIRECTION ( 'NONE',  ( 0.0000000000000000000, 0.0000000000000000000, 1.000000000000000000 ) ) ;
#40 = CARTESIAN_POINT ( 'NONE',  ( -12.69999999999999929, 0.0000000000000000000, 1.500000000000000000 ) ) ;
#41 = CARTESIAN_POINT ( 'NONE',  ( 0.0000000000000000000, 0.0000000000000000000, -1.500000000000000000 ) ) ;
#42 = CLOSED_SHELL ( 'NONE', ( #132, #87, #75, #148 ) ) ;
#43 = LINE ( 'NONE', #138, #51 ) ;
#44 = DIRECTION ( 'NONE',  ( 1.000000000000000000, 0.0000000000000000000, 0.0000000000000000000 ) ) ;
#45 = CC_DESIGN_SECURITY_CLASSIFICATION ( #133, ( #16 ) ) ;
#46 = CC_DESIGN_PERSON_AND_ORGANIZATION_ASSIGNMENT ( #72, #153, ( #16 ) ) ;
#47 = DIRECTION ( 'NONE',  ( 1.000000000000000000, 0.0000000000000000000, 0.0000000000000000000 ) ) ;
#48 = EDGE_LOOP ( 'NONE', ( #13, #34 ) ) ;
#49 = CIRCLE ( 'NONE', #171, 12.69999999999999929 ) ;
#50 = PERSON_AND_ORGANIZATION ( #2, #22 ) ;
#51 = VECTOR ( 'NONE', #12, 1000.000000000000000 ) ;
#52 = DATE_TIME_ROLE ( 'creation_date' ) ;
#53 = AXIS2_PLACEMENT_3D ( 'NONE', #5, #29, #47 ) ;
#54 = SECURITY_CLASSIFICATION_LEVEL ( 'unclassified' ) ;
#55 = APPLICATION_CONTEXT ( 'configuration controlled 3d designs of mechanical parts and assemblies' ) ;
#56 = PRODUCT ( 'Web Model 11874_11874', 'Web Model 11874_11874', '', ( #62 ) ) ;
#57 = VERTEX_POINT ( 'NONE', #164 ) ;
#58 = DATE_AND_TIME ( #30, #21 ) ;
#59 = CC_DESIGN_PERSON_AND_ORGANIZATION_ASSIGNMENT ( #84, #110, ( #56 ) ) ;
#60 = ORIENTED_EDGE ( 'NONE', *, *, #88, .F. ) ;
#61 = APPROVAL_ROLE ( '' ) ;
#62 = MECHANICAL_CONTEXT ( 'NONE', #14, 'mechanical' ) ;
#63 = DIRECTION ( 'NONE',  ( -1.000000000000000000, 0.0000000000000000000, 0.0000000000000000000 ) ) ;
#64 = PLANE ( 'NONE',  #140 ) ;
#65 = PERSON_AND_ORGANIZATION_ROLE ( 'classification_officer' ) ;
#66 = ORIENTED_EDGE ( 'NONE', *, *, #77, .T. ) ;
#67 = CARTESIAN_POINT ( 'NONE',  ( 0.0000000000000000000, 0.0000000000000000000, 1.500000000000000000 ) ) ;
#68 = COORDINATED_UNIVERSAL_TIME_OFFSET ( 5, 0, .BEHIND. ) ;
#69 = VERTEX_POINT ( 'NONE', #131 ) ;
#70 = LOCAL_TIME ( 13, 15, 9.000000000000000000, #106 ) ;
#71 = CYLINDRICAL_SURFACE ( 'NONE', #135, 12.69999999999999929 ) ;
#72 = PERSON_AND_ORGANIZATION ( #2, #22 ) ;
#73 = DIRECTION ( 'NONE',  ( -0.0000000000000000000, -0.0000000000000000000, -1.000000000000000000 ) ) ;
#74 = CARTESIAN_POINT ( 'NONE',  ( 0.0000000000000000000, 0.0000000000000000000, 1.500000000000000000 ) ) ;
#75 = ADVANCED_FACE ( 'NONE', ( #163 ), #37, .T. ) ;
#76 = DIRECTION ( 'NONE',  ( 1.000000000000000000, 0.0000000000000000000, -0.0000000000000000000 ) ) ;
#77 = EDGE_CURVE ( 'NONE', #69, #57, #43, .T. ) ;
#78 = DIRECTION ( 'NONE',  ( -0.0000000000000000000, -0.0000000000000000000, -1.000000000000000000 ) ) ;
#79 = DIRECTION ( 'NONE',  ( 1.000000000000000000, 0.0000000000000000000, -0.0000000000000000000 ) ) ;
#80 =( GEOMETRIC_REPRESENTATION_CONTEXT ( 3 ) GLOBAL_UNCERTAINTY_ASSIGNED_CONTEXT ( ( #4 ) ) GLOBAL_UNIT_ASSIGNED_CONTEXT ( ( #94, #107, #15 ) ) REPRESENTATION_CONTEXT ( 'NONE', 'WORKASPACE' ) );
#81 = ORIENTED_EDGE ( 'NONE', *, *, #109, .F. ) ;
#82 = COORDINATED_UNIVERSAL_TIME_OFFSET ( 5, 0, .BEHIND. ) ;
#83 = MANIFOLD_SOLID_BREP ( 'Boss-Extrude1', #42 ) ;
#84 = PERSON_AND_ORGANIZATION ( #2, #22 ) ;
#85 = EDGE_LOOP ( 'NONE', ( #102, #112, #144, #35 ) ) ;
#86 = CC_DESIGN_APPROVAL ( #160, ( #147 ) ) ;
#87 = ADVANCED_FACE ( 'NONE', ( #32 ), #118, .T. ) ;
#88 = EDGE_CURVE ( 'NONE', #69, #168, #91, .T. ) ;
#89 = PERSON_AND_ORGANIZATION ( #2, #22 ) ;
#90 = DIRECTION ( 'NONE',  ( 0.0000000000000000000, 0.0000000000000000000, 1.000000000000000000 ) ) ;
#91 = CIRCLE ( 'NONE', #141, 12.69999999999999929 ) ;
#92 = CC_DESIGN_DATE_AND_TIME_ASSIGNMENT ( #152, #52, ( #147 ) ) ;
#93 = DIRECTION ( 'NONE',  ( 0.0000000000000000000, 0.0000000000000000000, 1.000000000000000000 ) ) ;
#94 =( LENGTH_UNIT ( ) NAMED_UNIT ( * ) SI_UNIT ( .MILLI., .METRE. ) );
#95 = APPROVAL_DATE_TIME ( #20, #143 ) ;
#96 = APPROVAL_STATUS ( 'not_yet_approved' ) ;
#97 = LINE ( 'NONE', #146, #26 ) ;
#98 = EDGE_LOOP ( 'NONE', ( #81, #128 ) ) ;
#99 = CC_DESIGN_PERSON_AND_ORGANIZATION_ASSIGNMENT ( #89, #155, ( #16 ) ) ;
#100 = EDGE_CURVE ( 'NONE', #168, #69, #126, .T. ) ;
#101 = CC_DESIGN_PERSON_AND_ORGANIZATION_ASSIGNMENT ( #25, #65, ( #133 ) ) ;
#102 = ORIENTED_EDGE ( 'NONE', *, *, #77, .F. ) ;
#103 = LOCAL_TIME ( 13, 15, 9.000000000000000000, #120 ) ;
#104 = ORIENTED_EDGE ( 'NONE', *, *, #174, .T. ) ;
#105 = CARTESIAN_POINT ( 'NONE',  ( 0.0000000000000000000, 0.0000000000000000000, 1.500000000000000000 ) ) ;
#106 = COORDINATED_UNIVERSAL_TIME_OFFSET ( 5, 0, .BEHIND. ) ;
#107 =( NAMED_UNIT ( * ) PLANE_ANGLE_UNIT ( ) SI_UNIT ( $, .RADIAN. ) );
#108 = PRODUCT_RELATED_PRODUCT_CATEGORY ( 'detail', '', ( #56 ) ) ;
#109 = EDGE_CURVE ( 'NONE', #173, #57, #49, .T. ) ;
#110 = PERSON_AND_ORGANIZATION_ROLE ( 'design_owner' ) ;
#111 = APPROVAL_DATE_TIME ( #7, #160 ) ;
#112 = ORIENTED_EDGE ( 'NONE', *, *, #100, .F. ) ;
#113 = PRODUCT_DEFINITION_SHAPE ( 'NONE', 'NONE',  #147 ) ;
#114 = APPROVAL ( #24, 'UNSPECIFIED' ) ;
#115 = AXIS2_PLACEMENT_3D ( 'NONE', #74, #39, #76 ) ;
#116 = CALENDAR_DATE ( 2020, 7, 10 ) ;
#117 = APPROVAL_ROLE ( '' ) ;
#118 = CYLINDRICAL_SURFACE ( 'NONE', #150, 12.69999999999999929 ) ;
#119 = APPROVAL_STATUS ( 'not_yet_approved' ) ;
#120 = COORDINATED_UNIVERSAL_TIME_OFFSET ( 5, 0, .BEHIND. ) ;
#121 = CARTESIAN_POINT ( 'NONE',  ( 0.0000000000000000000, 0.0000000000000000000, 1.500000000000000000 ) ) ;
#122 = DIRECTION ( 'NONE',  ( -1.000000000000000000, 0.0000000000000000000, 0.0000000000000000000 ) ) ;
#123 = APPROVAL_ROLE ( '' ) ;
#124 = CC_DESIGN_DATE_AND_TIME_ASSIGNMENT ( #175, #139, ( #133 ) ) ;
#125 = AXIS2_PLACEMENT_3D ( 'NONE', #169, #90, #44 ) ;
#126 = CIRCLE ( 'NONE', #161, 12.69999999999999929 ) ;
#127 = CC_DESIGN_APPROVAL ( #114, ( #16 ) ) ;
#128 = ORIENTED_EDGE ( 'NONE', *, *, #174, .F. ) ;
#129 = PERSON_AND_ORGANIZATION_ROLE ( 'creator' ) ;
#130 = CALENDAR_DATE ( 2020, 7, 10 ) ;
#131 = CARTESIAN_POINT ( 'NONE',  ( 12.69999999999999929, 1.555301434917138433E-15, 1.500000000000000000 ) ) ;
#132 = ADVANCED_FACE ( 'NONE', ( #172 ), #71, .T. ) ;
#133 = SECURITY_CLASSIFICATION ( '', '', #54 ) ;
#134 = SHAPE_DEFINITION_REPRESENTATION ( #113, #1 ) ;
#135 = AXIS2_PLACEMENT_3D ( 'NONE', #105, #78, #63 ) ;
#136 = DIRECTION ( 'NONE',  ( 1.000000000000000000, 0.0000000000000000000, 0.0000000000000000000 ) ) ;
#137 = EDGE_LOOP ( 'NONE', ( #60, #66, #104, #17 ) ) ;
#138 = CARTESIAN_POINT ( 'NONE',  ( 12.69999999999999929, 1.555301434917138433E-15, 1.500000000000000000 ) ) ;
#139 = DATE_TIME_ROLE ( 'classification_date' ) ;
#140 = AXIS2_PLACEMENT_3D ( 'NONE', #165, #27, #79 ) ;
#141 = AXIS2_PLACEMENT_3D ( 'NONE', #121, #154, #151 ) ;
#142 = PERSON_AND_ORGANIZATION ( #2, #22 ) ;
#143 = APPROVAL ( #96, 'UNSPECIFIED' ) ;
#144 = ORIENTED_EDGE ( 'NONE', *, *, #8, .T. ) ;
#145 = APPROVAL_PERSON_ORGANIZATION ( #157, #160, #117 ) ;
#146 = CARTESIAN_POINT ( 'NONE',  ( -12.69999999999999929, 0.0000000000000000000, 1.500000000000000000 ) ) ;
#147 = PRODUCT_DEFINITION ( 'UNKNOWN', '', #16, #162 ) ;
#148 = ADVANCED_FACE ( 'NONE', ( #159 ), #64, .F. ) ;
#149 = APPROVAL_PERSON_ORGANIZATION ( #50, #143, #123 ) ;
#150 = AXIS2_PLACEMENT_3D ( 'NONE', #19, #9, #122 ) ;
#151 = DIRECTION ( 'NONE',  ( 1.000000000000000000, 0.0000000000000000000, 0.0000000000000000000 ) ) ;
#152 = DATE_AND_TIME ( #116, #103 ) ;
#153 = PERSON_AND_ORGANIZATION_ROLE ( 'design_supplier' ) ;
#154 = DIRECTION ( 'NONE',  ( 0.0000000000000000000, 0.0000000000000000000, 1.000000000000000000 ) ) ;
#155 = PERSON_AND_ORGANIZATION_ROLE ( 'creator' ) ;
#156 = APPLICATION_PROTOCOL_DEFINITION ( 'international standard', 'config_control_design', 1994, #55 ) ;
#157 = PERSON_AND_ORGANIZATION ( #2, #22 ) ;
#158 = APPLICATION_PROTOCOL_DEFINITION ( 'international standard', 'config_control_design', 1994, #14 ) ;
#159 = FACE_OUTER_BOUND ( 'NONE', #98, .T. ) ;
#160 = APPROVAL ( #119, 'UNSPECIFIED' ) ;
#161 = AXIS2_PLACEMENT_3D ( 'NONE', #67, #167, #18 ) ;
#162 = DESIGN_CONTEXT ( 'detailed design', #55, 'design' ) ;
#163 = FACE_OUTER_BOUND ( 'NONE', #48, .T. ) ;
#164 = CARTESIAN_POINT ( 'NONE',  ( 12.69999999999999929, 1.555301434917138433E-15, -1.500000000000000000 ) ) ;
#165 = CARTESIAN_POINT ( 'NONE',  ( 0.0000000000000000000, 0.0000000000000000000, -1.500000000000000000 ) ) ;
#166 = LOCAL_TIME ( 13, 15, 9.000000000000000000, #68 ) ;
#167 = DIRECTION ( 'NONE',  ( 0.0000000000000000000, 0.0000000000000000000, 1.000000000000000000 ) ) ;
#168 = VERTEX_POINT ( 'NONE', #40 ) ;
#169 = CARTESIAN_POINT ( 'NONE',  ( 0.0000000000000000000, 0.0000000000000000000, -1.500000000000000000 ) ) ;
#170 = CC_DESIGN_APPROVAL ( #143, ( #133 ) ) ;
#171 = AXIS2_PLACEMENT_3D ( 'NONE', #41, #93, #136 ) ;
#172 = FACE_OUTER_BOUND ( 'NONE', #137, .T. ) ;
#173 = VERTEX_POINT ( 'NONE', #28 ) ;
#174 = EDGE_CURVE ( 'NONE', #57, #173, #10, .T. ) ;
#175 = DATE_AND_TIME ( #38, #11 ) ;
ENDSEC;
END-ISO-10303-21;
